  0
SECTION
  2
HEADER
  9
$ACADVER
  1
AC1021
  9
$ACADMAINTVER
 70
    25
  9
$DWGCODEPAGE
  3
ANSI_1251
  9
$INSBASE
 10
0.0
 20
0.0
 30
0.0
  9
$EXTMIN
 10
1.000000000000000E+20
 20
1.000000000000000E+20
 30
1.000000000000000E+20
  9
$EXTMAX
 10
-1.000000000000000E+20
 20
-1.000000000000000E+20
 30
-1.000000000000000E+20
  9
$LIMMIN
 10
0.0
 20
0.0
  9
$LIMMAX
 10
420.0
 20
297.0
  9
$ORTHOMODE
 70
     0
  9
$REGENMODE
 70
     1
  9
$FILLMODE
 70
     1
  9
$QTEXTMODE
 70
     0
  9
$MIRRTEXT
 70
     1
  9
$LTSCALE
 40
1.0
  9
$ATTMODE
 70
     1
  9
$TEXTSIZE
 40
2.5
  9
$TRACEWID
 40
1.0
  9
$TEXTSTYLE
  7
Standard
  9
$CLAYER
  8
0
  9
$CELTYPE
  6
ByLayer
  9
$CECOLOR
 62
   256
  9
$CELTSCALE
 40
1.0
  9
$DISPSILH
 70
     0
  9
$DIMSCALE
 40
1.0
  9
$DIMASZ
 40
2.5
  9
$DIMEXO
 40
0.625
  9
$DIMDLI
 40
3.75
  9
$DIMRND
 40
0.0
  9
$DIMDLE
 40
0.0
  9
$DIMEXE
 40
1.25
  9
$DIMTP
 40
0.0
  9
$DIMTM
 40
0.0
  9
$DIMTXT
 40
2.5
  9
$DIMCEN
 40
2.5
  9
$DIMTSZ
 40
0.0
  9
$DIMTOL
 70
     0
  9
$DIMLIM
 70
     0
  9
$DIMTIH
 70
     0
  9
$DIMTOH
 70
     0
  9
$DIMSE1
 70
     0
  9
$DIMSE2
 70
     0
  9
$DIMTAD
 70
     1
  9
$DIMZIN
 70
     8
  9
$DIMBLK
  1

  9
$DIMASO
 70
     1
  9
$DIMSHO
 70
     1
  9
$DIMPOST
  1

  9
$DIMAPOST
  1

  9
$DIMALT
 70
     0
  9
$DIMALTD
 70
     3
  9
$DIMALTF
 40
0.03937007874016
  9
$DIMLFAC
 40
1.0
  9
$DIMTOFL
 70
     1
  9
$DIMTVP
 40
0.0
  9
$DIMTIX
 70
     0
  9
$DIMSOXD
 70
     0
  9
$DIMSAH
 70
     0
  9
$DIMBLK1
  1

  9
$DIMBLK2
  1

  9
$DIMSTYLE
  2
ISO-25
  9
$DIMCLRD
 70
     0
  9
$DIMCLRE
 70
     0
  9
$DIMCLRT
 70
     0
  9
$DIMTFAC
 40
1.0
  9
$DIMGAP
 40
0.625
  9
$DIMJUST
 70
     0
  9
$DIMSD1
 70
     0
  9
$DIMSD2
 70
     0
  9
$DIMTOLJ
 70
     0
  9
$DIMTZIN
 70
     8
  9
$DIMALTZ
 70
     0
  9
$DIMALTTZ
 70
     0
  9
$DIMUPT
 70
     0
  9
$DIMDEC
 70
     2
  9
$DIMTDEC
 70
     2
  9
$DIMALTU
 70
     2
  9
$DIMALTTD
 70
     3
  9
$DIMTXSTY
  7
Standard
  9
$DIMAUNIT
 70
     0
  9
$DIMADEC
 70
     0
  9
$DIMALTRND
 40
0.0
  9
$DIMAZIN
 70
     0
  9
$DIMDSEP
 70
    44
  9
$DIMATFIT
 70
     3
  9
$DIMFRAC
 70
     0
  9
$DIMLDRBLK
  1

  9
$DIMLUNIT
 70
     2
  9
$DIMLWD
 70
    -2
  9
$DIMLWE
 70
    -2
  9
$DIMTMOVE
 70
     0
  9
$DIMFXL
 40
1.0
  9
$DIMFXLON
 70
     0
  9
$DIMJOGANG
 40
0.7853981633974483
  9
$DIMTFILL
 70
     0
  9
$DIMTFILLCLR
 70
     0
  9
$DIMARCSYM
 70
     0
  9
$DIMLTYPE
  6

  9
$DIMLTEX1
  6

  9
$DIMLTEX2
  6

  9
$LUNITS
 70
     2
  9
$LUPREC
 70
     4
  9
$SKETCHINC
 40
1.0
  9
$FILLETRAD
 40
10.0
  9
$AUNITS
 70
     0
  9
$AUPREC
 70
     0
  9
$MENU
  1
.
  9
$ELEVATION
 40
0.0
  9
$PELEVATION
 40
0.0
  9
$THICKNESS
 40
0.0
  9
$LIMCHECK
 70
     0
  9
$CHAMFERA
 40
10.0
  9
$CHAMFERB
 40
10.0
  9
$CHAMFERC
 40
20.0
  9
$CHAMFERD
 40
0.0
  9
$SKPOLY
 70
     0
  9
$TDCREATE
 40
2456666.094939768
  9
$TDUCREATE
 40
2456665.969939768
  9
$TDUPDATE
 40
2456666.094940683
  9
$TDUUPDATE
 40
2456665.969940683
  9
$TDINDWG
 40
0.0000000116
  9
$TDUSRTIMER
 40
0.0000000116
  9
$USRTIMER
 70
     1
  9
$ANGBASE
 50
0.0
  9
$ANGDIR
 70
     0
  9
$PDMODE
 70
     0
  9
$PDSIZE
 40
0.0
  9
$PLINEWID
 40
0.0
  9
$SPLFRAME
 70
     0
  9
$SPLINETYPE
 70
     6
  9
$SPLINESEGS
 70
     8
  9
$HANDSEED
  5
504
  9
$SURFTAB1
 70
     6
  9
$SURFTAB2
 70
     6
  9
$SURFTYPE
 70
     6
  9
$SURFU
 70
     6
  9
$SURFV
 70
     6
  9
$UCSBASE
  2

  9
$UCSNAME
  2

  9
$UCSORG
 10
0.0
 20
0.0
 30
0.0
  9
$UCSXDIR
 10
1.0
 20
0.0
 30
0.0
  9
$UCSYDIR
 10
0.0
 20
1.0
 30
0.0
  9
$UCSORTHOREF
  2

  9
$UCSORTHOVIEW
 70
     0
  9
$UCSORGTOP
 10
0.0
 20
0.0
 30
0.0
  9
$UCSORGBOTTOM
 10
0.0
 20
0.0
 30
0.0
  9
$UCSORGLEFT
 10
0.0
 20
0.0
 30
0.0
  9
$UCSORGRIGHT
 10
0.0
 20
0.0
 30
0.0
  9
$UCSORGFRONT
 10
0.0
 20
0.0
 30
0.0
  9
$UCSORGBACK
 10
0.0
 20
0.0
 30
0.0
  9
$PUCSBASE
  2

  9
$PUCSNAME
  2

  9
$PUCSORG
 10
0.0
 20
0.0
 30
0.0
  9
$PUCSXDIR
 10
1.0
 20
0.0
 30
0.0
  9
$PUCSYDIR
 10
0.0
 20
1.0
 30
0.0
  9
$PUCSORTHOREF
  2

  9
$PUCSORTHOVIEW
 70
     0
  9
$PUCSORGTOP
 10
0.0
 20
0.0
 30
0.0
  9
$PUCSORGBOTTOM
 10
0.0
 20
0.0
 30
0.0
  9
$PUCSORGLEFT
 10
0.0
 20
0.0
 30
0.0
  9
$PUCSORGRIGHT
 10
0.0
 20
0.0
 30
0.0
  9
$PUCSORGFRONT
 10
0.0
 20
0.0
 30
0.0
  9
$PUCSORGBACK
 10
0.0
 20
0.0
 30
0.0
  9
$USERI1
 70
     0
  9
$USERI2
 70
     0
  9
$USERI3
 70
     0
  9
$USERI4
 70
     0
  9
$USERI5
 70
     0
  9
$USERR1
 40
0.0
  9
$USERR2
 40
0.0
  9
$USERR3
 40
0.0
  9
$USERR4
 40
0.0
  9
$USERR5
 40
0.0
  9
$WORLDVIEW
 70
     1
  9
$SHADEDGE
 70
     3
  9
$SHADEDIF
 70
    70
  9
$TILEMODE
 70
     1
  9
$MAXACTVP
 70
    64
  9
$PINSBASE
 10
0.0
 20
0.0
 30
0.0
  9
$PLIMCHECK
 70
     0
  9
$PEXTMIN
 10
1.000000000000000E+20
 20
1.000000000000000E+20
 30
1.000000000000000E+20
  9
$PEXTMAX
 10
-1.000000000000000E+20
 20
-1.000000000000000E+20
 30
-1.000000000000000E+20
  9
$PLIMMIN
 10
0.0
 20
0.0
  9
$PLIMMAX
 10
420.0
 20
297.0
  9
$UNITMODE
 70
     0
  9
$VISRETAIN
 70
     1
  9
$PLINEGEN
 70
     0
  9
$PSLTSCALE
 70
     1
  9
$TREEDEPTH
 70
  3020
  9
$CMLSTYLE
  2
Standard
  9
$CMLJUST
 70
     0
  9
$CMLSCALE
 40
20.0
  9
$PROXYGRAPHICS
 70
     1
  9
$MEASUREMENT
 70
     1
  9
$CELWEIGHT
370
    -1
  9
$ENDCAPS
280
     0
  9
$JOINSTYLE
280
     0
  9
$LWDISPLAY
290
     0
  9
$INSUNITS
 70
     4
  9
$HYPERLINKBASE
  1

  9
$STYLESHEET
  1

  9
$XEDIT
290
     1
  9
$CEPSNTYPE
380
     0
  9
$PSTYLEMODE
290
     1
  9
$FINGERPRINTGUID
  2
{1BF70896-6551-4DC1-875E-FA05776CFA43}
  9
$VERSIONGUID
  2
{FAEB1C32-E019-11D5-929B-00C0DF256EC4}
  9
$EXTNAMES
290
     1
  9
$PSVPSCALE
 40
0.0
  9
$OLESTARTUP
290
     0
  9
$SORTENTS
280
   127
  9
$INDEXCTL
280
     0
  9
$HIDETEXT
280
     1
  9
$XCLIPFRAME
290
     0
  9
$HALOGAP
280
     0
  9
$OBSCOLOR
 70
   257
  9
$OBSLTYPE
280
     0
  9
$INTERSECTIONDISPLAY
280
     0
  9
$INTERSECTIONCOLOR
 70
   257
  9
$DIMASSOC
280
     2
  9
$PROJECTNAME
  1

  9
$CAMERADISPLAY
290
     0
  9
$LENSLENGTH
 40
50.0
  9
$CAMERAHEIGHT
 40
0.0
  9
$STEPSPERSEC
 40
2.0
  9
$STEPSIZE
 40
6.0
  9
$3DDWFPREC
 40
2.0
  9
$PSOLWIDTH
 40
5.0
  9
$PSOLHEIGHT
 40
80.0
  9
$LOFTANG1
 40
1.570796326794897
  9
$LOFTANG2
 40
1.570796326794897
  9
$LOFTMAG1
 40
0.0
  9
$LOFTMAG2
 40
0.0
  9
$LOFTPARAM
 70
     7
  9
$LOFTNORMALS
280
     1
  9
$LATITUDE
 40
37.795
  9
$LONGITUDE
 40
-122.394
  9
$NORTHDIRECTION
 40
0.0
  9
$TIMEZONE
 70
 -8000
  9
$LIGHTGLYPHDISPLAY
280
     1
  9
$TILEMODELIGHTSYNCH
280
     1
  9
$SOLIDHIST
280
     1
  9
$SHOWHIST
280
     1
  9
$DWFFRAME
280
     2
  9
$DGNFRAME
280
     2
  9
$REALWORLDSCALE
290
     1
  9
$INTERFERECOLOR
 62
   256
  9
$CSHADOW
280
     0
  9
$SHADOWPLANELOCATION
 40
0.0
  0
ENDSEC
  0
SECTION
  2
CLASSES
  0
CLASS
  1
ACDBDICTIONARYWDFLT
  2
AcDbDictionaryWithDefault
  3
ObjectDBX Classes
 90
        0
 91
        4
280
     0
281
     0
  0
CLASS
  1
VISUALSTYLE
  2
AcDbVisualStyle
  3
ObjectDBX Classes
 90
     4095
 91
        4
280
     0
281
     0
  0
CLASS
  1
MATERIAL
  2
AcDbMaterial
  3
ObjectDBX Classes
 90
     1153
 91
        4
280
     0
281
     0
  0
CLASS
  1
SCALE
  2
AcDbScale
  3
ObjectDBX Classes
 90
     1153
 91
        4
280
     0
281
     0
  0
CLASS
  1
DICTIONARYVAR
  2
AcDbDictionaryVar
  3
ObjectDBX Classes
 90
        0
 91
        4
280
     0
281
     0
  0
ENDSEC
  0
SECTION
  2
TABLES
  0
TABLE
  2
VPORT
  5
8
330
0
100
AcDbSymbolTable
 70
     1
  0
VPORT
  5
29
330
8
100
AcDbSymbolTableRecord
100
AcDbViewportTableRecord
  2
*Active
 70
     0
 10
0.0
 20
0.0
 11
1.0
 21
1.0
 12
50.0
 22
50.00000000000003
 13
0.0
 23
0.0
 14
10.0
 24
10.0
 15
10.0
 25
10.0
 16
0.0
 26
0.0
 36
1.0
 17
0.0
 27
0.0
 37
0.0
 40
102.0000000000001
 41
0.9999999999999994
 42
50.0
 43
0.0
 44
0.0
 50
0.0
 51
0.0
 71
     0
 72
   100
 73
     1
 74
     3
 75
     0
 76
     0
 77
     0
 78
     0
281
     0
 65
     1
110
0.0
120
0.0
130
0.0
111
1.0
121
0.0
131
0.0
112
0.0
122
1.0
132
0.0
 79
     0
146
0.0
 60
     3
 61
     5
292
     1
282
     1
141
0.0
142
0.0
 63
   250
  0
ENDTAB
  0
TABLE
  2
LTYPE
  5
5
330
0
100
AcDbSymbolTable
 70
    21
  0
LTYPE
  5
14
330
5
100
AcDbSymbolTableRecord
100
AcDbLinetypeTableRecord
  2
ByBlock
 70
     0
  3

 72
    65
 73
     0
 40
0.0
  0
LTYPE
  5
15
330
5
100
AcDbSymbolTableRecord
100
AcDbLinetypeTableRecord
  2
ByLayer
 70
     0
  3

 72
    65
 73
     0
 40
0.0
  0
LTYPE
  5
16
330
5
100
AcDbSymbolTableRecord
100
AcDbLinetypeTableRecord
  2
Continuous
 70
     0
  3
Solid line
 72
    65
 73
     0
 40
0.0
  0
LTYPE
  5
43
330
5
100
AcDbSymbolTableRecord
100
AcDbLinetypeTableRecord
  2
K5LT_THIN
 70
     0
  3

 72
    65
 73
     0
 40
0.0
  0
LTYPE
  5
A5
330
5
100
AcDbSymbolTableRecord
100
AcDbLinetypeTableRecord
  2
K5LT32768
 70
     0
  3

 72
    65
 73
     0
 40
0.0
  0
LTYPE
  5
B0
330
5
100
AcDbSymbolTableRecord
100
AcDbLinetypeTableRecord
  2
K5LT32769
 70
     0
  3

 72
    65
 73
     0
 40
0.0
  0
LTYPE
  5
BC
330
5
100
AcDbSymbolTableRecord
100
AcDbLinetypeTableRecord
  2
K5LT32770
 70
     0
  3

 72
    65
 73
     0
 40
0.0
  0
LTYPE
  5
C8
330
5
100
AcDbSymbolTableRecord
100
AcDbLinetypeTableRecord
  2
K5LT32771
 70
     0
  3

 72
    65
 73
     0
 40
0.0
  0
LTYPE
  5
D3
330
5
100
AcDbSymbolTableRecord
100
AcDbLinetypeTableRecord
  2
K5LT32772
 70
     0
  3

 72
    65
 73
     0
 40
0.0
  0
LTYPE
  5
DE
330
5
100
AcDbSymbolTableRecord
100
AcDbLinetypeTableRecord
  2
K5LT32773
 70
     0
  3

 72
    65
 73
     0
 40
0.0
  0
LTYPE
  5
E9
330
5
100
AcDbSymbolTableRecord
100
AcDbLinetypeTableRecord
  2
K5LT32774
 70
     0
  3

 72
    65
 73
     0
 40
0.0
  0
LTYPE
  5
FA
330
5
100
AcDbSymbolTableRecord
100
AcDbLinetypeTableRecord
  2
K5LT32775
 70
     0
  3

 72
    65
 73
     0
 40
0.0
  0
LTYPE
  5
10B
330
5
100
AcDbSymbolTableRecord
100
AcDbLinetypeTableRecord
  2
K5LT32776
 70
     0
  3

 72
    65
 73
     0
 40
0.0
  0
LTYPE
  5
11B
330
5
100
AcDbSymbolTableRecord
100
AcDbLinetypeTableRecord
  2
K5LT32777
 70
     0
  3

 72
    65
 73
     0
 40
0.0
  0
LTYPE
  5
143
330
5
100
AcDbSymbolTableRecord
100
AcDbLinetypeTableRecord
  2
K5LT32778
 70
     0
  3

 72
    65
 73
     0
 40
0.0
  0
LTYPE
  5
16B
330
5
100
AcDbSymbolTableRecord
100
AcDbLinetypeTableRecord
  2
K5LT32779
 70
     0
  3

 72
    65
 73
     0
 40
0.0
  0
LTYPE
  5
193
330
5
100
AcDbSymbolTableRecord
100
AcDbLinetypeTableRecord
  2
K5LT32780
 70
     0
  3

 72
    65
 73
     0
 40
0.0
  0
LTYPE
  5
1BC
330
5
100
AcDbSymbolTableRecord
100
AcDbLinetypeTableRecord
  2
K5LT32781
 70
     0
  3

 72
    65
 73
     0
 40
0.0
  0
LTYPE
  5
1E5
330
5
100
AcDbSymbolTableRecord
100
AcDbLinetypeTableRecord
  2
K5LT32782
 70
     0
  3

 72
    65
 73
     0
 40
0.0
  0
LTYPE
  5
20E
330
5
100
AcDbSymbolTableRecord
100
AcDbLinetypeTableRecord
  2
K5LT32783
 70
     0
  3

 72
    65
 73
     0
 40
0.0
  0
LTYPE
  5
270
330
5
100
AcDbSymbolTableRecord
100
AcDbLinetypeTableRecord
  2
K5LT32784
 70
     0
  3

 72
    65
 73
     0
 40
0.0
  0
LTYPE
  5
334
330
5
100
AcDbSymbolTableRecord
100
AcDbLinetypeTableRecord
  2
K5LT32785
 70
     0
  3

 72
    65
 73
     0
 40
0.0
  0
LTYPE
  5
3FD
330
5
100
AcDbSymbolTableRecord
100
AcDbLinetypeTableRecord
  2
K5LT32786
 70
     0
  3

 72
    65
 73
     0
 40
0.0
  0
ENDTAB
  0
TABLE
  2
LAYER
  5
2
330
0
100
AcDbSymbolTable
 70
     3
  0
LAYER
  5
10
330
2
100
AcDbSymbolTableRecord
100
AcDbLayerTableRecord
  2
0
 70
     0
 62
     7
  6
Continuous
370
    -3
390
F
347
3E
  0
LAYER
  5
40
330
2
100
AcDbSymbolTableRecord
100
AcDbLayerTableRecord
  2
0 (1)
 70
     0
 62
     7
  6
Continuous
370
    -3
390
F
347
3E
  0
LAYER
  5
41
330
2
100
AcDbSymbolTableRecord
100
AcDbLayerTableRecord
  2
0 (1) (1)
 70
     0
 62
     7
  6
Continuous
370
    -3
390
F
347
3E
  0
ENDTAB
  0
TABLE
  2
STYLE
  5
3
330
0
100
AcDbSymbolTable
 70
     1
  0
STYLE
  5
11
330
3
100
AcDbSymbolTableRecord
100
AcDbTextStyleTableRecord
  2
Standard
 70
     0
 40
0.0
 41
1.0
 50
0.0
 71
     0
 42
2.5
  3
txt
  4

  0
ENDTAB
  0
TABLE
  2
VIEW
  5
6
330
0
100
AcDbSymbolTable
 70
     0
  0
ENDTAB
  0
TABLE
  2
UCS
  5
7
330
0
100
AcDbSymbolTable
 70
     0
  0
ENDTAB
  0
TABLE
  2
APPID
  5
9
330
0
100
AcDbSymbolTable
 70
     2
  0
APPID
  5
12
330
9
100
AcDbSymbolTableRecord
100
AcDbRegAppTableRecord
  2
ACAD
 70
     0
  0
APPID
  5
3F
330
9
100
AcDbSymbolTableRecord
100
AcDbRegAppTableRecord
  2
KOMPAS
 70
     0
  0
ENDTAB
  0
TABLE
  2
DIMSTYLE
  5
A
330
0
100
AcDbSymbolTable
 70
     1
100
AcDbDimStyleTable
  0
DIMSTYLE
105
27
330
A
100
AcDbSymbolTableRecord
100
AcDbDimStyleTableRecord
  2
ISO-25
 70
     0
 41
2.5
 42
0.625
 43
3.75
 44
1.25
 73
     0
 74
     0
 77
     1
 78
     8
140
2.5
141
2.5
143
0.03937007874016
147
0.625
171
     3
172
     1
178
     0
271
     2
272
     2
274
     3
278
    44
283
     0
284
     8
340
11
  0
ENDTAB
  0
TABLE
  2
BLOCK_RECORD
  5
1
330
0
100
AcDbSymbolTable
 70
    15
  0
BLOCK_RECORD
  5
1F
330
1
100
AcDbSymbolTableRecord
100
AcDbBlockTableRecord
  2
*Model_Space
340
22
 70
     0
280
     1
281
     0
  0
BLOCK_RECORD
  5
1B
330
1
100
AcDbSymbolTableRecord
100
AcDbBlockTableRecord
  2
*Paper_Space
340
1E
 70
     0
280
     1
281
     0
  0
BLOCK_RECORD
  5
23
330
1
100
AcDbSymbolTableRecord
100
AcDbBlockTableRecord
  2
*Paper_Space0
340
26
 70
     0
280
     1
281
     0
  0
BLOCK_RECORD
  5
42
330
1
100
AcDbSymbolTableRecord
100
AcDbBlockTableRecord
  2
KDIMARROW_00
340
0
 70
     0
280
     1
281
     0
  0
BLOCK_RECORD
  5
47
330
1
100
AcDbSymbolTableRecord
100
AcDbBlockTableRecord
  2
KDIMARROW_01
340
0
 70
     0
280
     1
281
     0
  0
BLOCK_RECORD
  5
50
330
1
100
AcDbSymbolTableRecord
100
AcDbBlockTableRecord
  2
KDIMARROW_02
340
0
 70
     0
280
     1
281
     0
  0
BLOCK_RECORD
  5
5A
330
1
100
AcDbSymbolTableRecord
100
AcDbBlockTableRecord
  2
KDIMARROW_03
340
0
 70
     0
280
     1
281
     0
  0
BLOCK_RECORD
  5
60
330
1
100
AcDbSymbolTableRecord
100
AcDbBlockTableRecord
  2
KDIMARROW_04
340
0
 70
     0
280
     1
281
     0
  0
BLOCK_RECORD
  5
66
330
1
100
AcDbSymbolTableRecord
100
AcDbBlockTableRecord
  2
KDIMARROW_05
340
0
 70
     0
280
     1
281
     0
  0
BLOCK_RECORD
  5
6F
330
1
100
AcDbSymbolTableRecord
100
AcDbBlockTableRecord
  2
KDIMARROW_06
340
0
 70
     0
280
     1
281
     0
  0
BLOCK_RECORD
  5
79
330
1
100
AcDbSymbolTableRecord
100
AcDbBlockTableRecord
  2
KDIMARROW_07
340
0
 70
     0
280
     1
281
     0
  0
BLOCK_RECORD
  5
7F
330
1
100
AcDbSymbolTableRecord
100
AcDbBlockTableRecord
  2
KDIMARROW_08
340
0
 70
     0
280
     1
281
     0
  0
BLOCK_RECORD
  5
86
330
1
100
AcDbSymbolTableRecord
100
AcDbBlockTableRecord
  2
KDIMARROW_09
340
0
 70
     0
280
     1
281
     0
  0
BLOCK_RECORD
  5
8C
330
1
100
AcDbSymbolTableRecord
100
AcDbBlockTableRecord
  2
KDIMARROW_10
340
0
 70
     0
280
     1
281
     0
  0
BLOCK_RECORD
  5
93
330
1
100
AcDbSymbolTableRecord
100
AcDbBlockTableRecord
  2
KDIMARROW_11
340
0
 70
     0
280
     1
281
     0
  0
BLOCK_RECORD
  5
99
330
1
100
AcDbSymbolTableRecord
100
AcDbBlockTableRecord
  2
KDIMARROW_12
340
0
 70
     0
280
     1
281
     0
  0
BLOCK_RECORD
  5
9F
330
1
100
AcDbSymbolTableRecord
100
AcDbBlockTableRecord
  2
KDIMARROW_13
340
0
 70
     0
280
     1
281
     0
  0
ENDTAB
  0
ENDSEC
  0
SECTION
  2
BLOCKS
  0
BLOCK
  5
20
330
1F
100
AcDbEntity
  8
0
100
AcDbBlockBegin
  2
*Model_Space
 70
     0
 10
0.0
 20
0.0
 30
0.0
  3
*Model_Space
  1

  0
ENDBLK
  5
21
330
1F
100
AcDbEntity
  8
0
100
AcDbBlockEnd
  0
BLOCK
  5
1C
330
1B
100
AcDbEntity
 67
     1
  8
0
100
AcDbBlockBegin
  2
*Paper_Space
 70
     0
 10
0.0
 20
0.0
 30
0.0
  3
*Paper_Space
  1

  0
ENDBLK
  5
1D
330
1B
100
AcDbEntity
 67
     1
  8
0
100
AcDbBlockEnd
  0
BLOCK
  5
24
330
23
100
AcDbEntity
  8
0
100
AcDbBlockBegin
  2
*Paper_Space0
 70
     0
 10
0.0
 20
0.0
 30
0.0
  3
*Paper_Space0
  1

  0
ENDBLK
  5
25
330
23
100
AcDbEntity
  8
0
100
AcDbBlockEnd
  0
BLOCK
  5
45
330
42
100
AcDbEntity
  8
0
100
AcDbBlockBegin
  2
KDIMARROW_00
 70
     0
 10
0.0
 20
0.0
 30
0.0
  3
KDIMARROW_00
  1

  0
LINE
  5
44
330
42
100
AcDbEntity
  8
0 (1) (1)
  6
K5LT_THIN
 62
     0
370
    18
100
AcDbLine
 10
0.0
 20
0.0
 30
0.0
 11
-1.0
 21
0.0
 31
0.0
  0
ENDBLK
  5
46
330
42
100
AcDbEntity
  8
0
100
AcDbBlockEnd
  0
BLOCK
  5
4E
330
47
100
AcDbEntity
  8
0
100
AcDbBlockBegin
  2
KDIMARROW_01
 70
     0
 10
0.0
 20
0.0
 30
0.0
  3
KDIMARROW_01
  1

  0
LINE
  5
48
330
47
100
AcDbEntity
  8
0
  6
K5LT_THIN
 62
     0
370
    18
100
AcDbLine
 10
0.0
 20
0.0
 30
0.0
 11
-5.0
 21
-0.6582624912261956
 31
0.0
  0
LINE
  5
49
330
47
100
AcDbEntity
  8
0
  6
K5LT_THIN
 62
     0
370
    18
100
AcDbLine
 10
-5.0
 20
-0.6582624912261956
 30
0.0
 11
-4.5
 21
0.0000000000000006
 31
0.0
  0
LINE
  5
4A
330
47
100
AcDbEntity
  8
0
  6
K5LT_THIN
 62
     0
370
    18
100
AcDbLine
 10
-4.5
 20
0.0000000000000006
 30
0.0
 11
-5.0
 21
0.658262491226197
 31
0.0
  0
LINE
  5
4B
330
47
100
AcDbEntity
  8
0
  6
K5LT_THIN
 62
     0
370
    18
100
AcDbLine
 10
-5.0
 20
0.658262491226197
 30
0.0
 11
0.0
 21
0.0
 31
0.0
  0
HATCH
  5
4C
330
47
100
AcDbEntity
  8
0
 62
     0
100
AcDbHatch
 10
0.0
 20
0.0
 30
0.0
210
0.0
220
0.0
230
1.0
  2
SOLID
 70
     1
 71
     0
 91
        1
 92
        1
 93
        4
 72
     1
 10
0.0
 20
0.0
 11
-5.0
 21
0.658262491226197
 72
     1
 10
-5.0
 20
0.658262491226197
 11
-4.5
 21
0.0000000000000006
 72
     1
 10
-4.5
 20
0.0000000000000006
 11
-5.0
 21
-0.6582624912261956
 72
     1
 10
-5.0
 20
-0.6582624912261956
 11
0.0
 21
0.0
 97
        0
 75
     0
 76
     1
 98
        0
  0
LINE
  5
4D
330
47
100
AcDbEntity
  8
0 (1) (1)
  6
K5LT_THIN
 62
     0
370
    18
100
AcDbLine
 10
0.0
 20
0.0
 30
0.0
 11
-1.0
 21
0.0
 31
0.0
  0
ENDBLK
  5
4F
330
47
100
AcDbEntity
  8
0
100
AcDbBlockEnd
  0
BLOCK
  5
58
330
50
100
AcDbEntity
  8
0
100
AcDbBlockBegin
  2
KDIMARROW_02
 70
     0
 10
0.0
 20
0.0
 30
0.0
  3
KDIMARROW_02
  1

  0
LINE
  5
51
330
50
100
AcDbEntity
  8
0
  6
K5LT_THIN
 62
     0
370
    18
100
AcDbLine
 10
0.0
 20
0.0
 30
0.0
 11
5.0
 21
-0.658262491226197
 31
0.0
  0
LINE
  5
52
330
50
100
AcDbEntity
  8
0
  6
K5LT_THIN
 62
     0
370
    18
100
AcDbLine
 10
5.0
 20
-0.658262491226197
 30
0.0
 11
4.5
 21
-0.0000000000000006
 31
0.0
  0
LINE
  5
53
330
50
100
AcDbEntity
  8
0
  6
K5LT_THIN
 62
     0
370
    18
100
AcDbLine
 10
4.5
 20
-0.0000000000000006
 30
0.0
 11
5.0
 21
0.6582624912261956
 31
0.0
  0
LINE
  5
54
330
50
100
AcDbEntity
  8
0
  6
K5LT_THIN
 62
     0
370
    18
100
AcDbLine
 10
5.0
 20
0.6582624912261956
 30
0.0
 11
0.0
 21
0.0
 31
0.0
  0
LINE
  5
55
330
50
100
AcDbEntity
  8
0
  6
K5LT_THIN
 62
     0
370
    18
100
AcDbLine
 10
0.0
 20
0.0
 30
0.0
 11
7.0
 21
-0.0000000000000009
 31
0.0
  0
HATCH
  5
56
330
50
100
AcDbEntity
  8
0
 62
     0
100
AcDbHatch
 10
0.0
 20
0.0
 30
0.0
210
0.0
220
0.0
230
1.0
  2
SOLID
 70
     1
 71
     0
 91
        1
 92
        1
 93
        4
 72
     1
 10
4.5
 20
-0.0000000000000006
 11
5.0
 21
0.6582624912261956
 72
     1
 10
5.0
 20
0.6582624912261956
 11
0.0
 21
0.0
 72
     1
 10
0.0
 20
0.0
 11
5.0
 21
-0.658262491226197
 72
     1
 10
5.0
 20
-0.658262491226197
 11
4.5
 21
-0.0000000000000006
 97
        0
 75
     0
 76
     1
 98
        0
  0
LINE
  5
57
330
50
100
AcDbEntity
  8
0 (1) (1)
  6
K5LT_THIN
 62
     0
370
    18
100
AcDbLine
 10
0.0
 20
0.0
 30
0.0
 11
-1.0
 21
0.0
 31
0.0
  0
ENDBLK
  5
59
330
50
100
AcDbEntity
  8
0
100
AcDbBlockEnd
  0
BLOCK
  5
5E
330
5A
100
AcDbEntity
  8
0
100
AcDbBlockBegin
  2
KDIMARROW_03
 70
     0
 10
0.0
 20
0.0
 30
0.0
  3
KDIMARROW_03
  1

  0
LINE
  5
5B
330
5A
100
AcDbEntity
  8
0
  6
K5LT_THIN
 62
     0
370
    18
100
AcDbLine
 10
-1.060500025749207
 20
-1.060500025749206
 30
0.0
 11
1.060500025749207
 21
1.060500025749206
 31
0.0
  0
LINE
  5
5C
330
5A
100
AcDbEntity
  8
0
  6
K5LT_THIN
 62
     0
370
    18
100
AcDbLine
 10
0.0
 20
0.0
 30
0.0
 11
2.0
 21
-0.0000000000000002
 31
0.0
  0
LINE
  5
5D
330
5A
100
AcDbEntity
  8
0 (1) (1)
  6
K5LT_THIN
 62
     0
370
    18
100
AcDbLine
 10
0.0
 20
0.0
 30
0.0
 11
-1.0
 21
0.0
 31
0.0
  0
ENDBLK
  5
5F
330
5A
100
AcDbEntity
  8
0
100
AcDbBlockEnd
  0
BLOCK
  5
64
330
60
100
AcDbEntity
  8
0
100
AcDbBlockBegin
  2
KDIMARROW_04
 70
     0
 10
0.0
 20
0.0
 30
0.0
  3
KDIMARROW_04
  1

  0
LWPOLYLINE
  5
61
330
60
100
AcDbEntity
  8
0
  6
K5LT_THIN
 62
     7
100
AcDbPolyline
 90
       15
 70
     0
 43
0.18
 10
-0.25
 20
0.0
 10
0.0
 20
-0.25
 10
0.25
 20
0.0
 10
0.0
 20
0.25
 10
-0.25
 20
0.0
 10
-0.5
 20
0.0000000000000001
 10
-0.0000000000000001
 20
-0.5
 10
0.5
 20
-0.0000000000000001
 10
0.0000000000000001
 20
0.5
 10
-0.5
 20
0.0000000000000001
 10
-0.75
 20
0.0000000000000001
 10
-0.0000000000000001
 20
-0.75
 10
0.75
 20
-0.0000000000000001
 10
0.0000000000000001
 20
0.75
 10
-0.75
 20
0.0000000000000001
  0
LWPOLYLINE
  5
62
330
60
100
AcDbEntity
  8
0
  6
K5LT_THIN
 62
     7
100
AcDbPolyline
 90
       15
 70
     0
 43
0.18
 10
-0.25
 20
0.0
 10
0.0
 20
-0.25
 10
0.25
 20
0.0
 10
0.0
 20
0.25
 10
-0.25
 20
0.0
 10
-0.5
 20
0.0000000000000001
 10
-0.0000000000000001
 20
-0.5
 10
0.5
 20
-0.0000000000000001
 10
0.0000000000000001
 20
0.5
 10
-0.5
 20
0.0000000000000001
 10
-0.75
 20
0.0000000000000001
 10
-0.0000000000000001
 20
-0.75
 10
0.75
 20
-0.0000000000000001
 10
0.0000000000000001
 20
0.75
 10
-0.75
 20
0.0000000000000001
  0
LINE
  5
63
330
60
100
AcDbEntity
  8
0 (1) (1)
  6
K5LT_THIN
 62
     0
370
    18
100
AcDbLine
 10
0.0
 20
0.0
 30
0.0
 11
-1.0
 21
0.0
 31
0.0
  0
ENDBLK
  5
65
330
60
100
AcDbEntity
  8
0
100
AcDbBlockEnd
  0
BLOCK
  5
6D
330
66
100
AcDbEntity
  8
0
100
AcDbBlockBegin
  2
KDIMARROW_05
 70
     0
 10
0.0
 20
0.0
 30
0.0
  3
KDIMARROW_05
  1

  0
LINE
  5
67
330
66
100
AcDbEntity
  8
0
  6
K5LT_THIN
 62
     0
370
    18
100
AcDbLine
 10
0.0
 20
0.0
 30
0.0
 11
-5.0
 21
-0.6582624912261956
 31
0.0
  0
LINE
  5
68
330
66
100
AcDbEntity
  8
0
  6
K5LT_THIN
 62
     0
370
    18
100
AcDbLine
 10
-5.0
 20
-0.6582624912261956
 30
0.0
 11
-5.0
 21
0.0000000000000006
 31
0.0
  0
LINE
  5
69
330
66
100
AcDbEntity
  8
0
  6
K5LT_THIN
 62
     0
370
    18
100
AcDbLine
 10
-5.0
 20
0.0000000000000006
 30
0.0
 11
-5.0
 21
0.658262491226197
 31
0.0
  0
LINE
  5
6A
330
66
100
AcDbEntity
  8
0
  6
K5LT_THIN
 62
     0
370
    18
100
AcDbLine
 10
-5.0
 20
0.658262491226197
 30
0.0
 11
0.0
 21
0.0
 31
0.0
  0
HATCH
  5
6B
330
66
100
AcDbEntity
  8
0
 62
     0
100
AcDbHatch
 10
0.0
 20
0.0
 30
0.0
210
0.0
220
0.0
230
1.0
  2
SOLID
 70
     1
 71
     0
 91
        1
 92
        1
 93
        4
 72
     1
 10
0.0
 20
0.0
 11
-5.0
 21
0.658262491226197
 72
     1
 10
-5.0
 20
0.658262491226197
 11
-5.0
 21
0.0000000000000007
 72
     1
 10
-5.0
 20
0.0000000000000006
 11
-5.0
 21
-0.6582624912261956
 72
     1
 10
-5.0
 20
-0.6582624912261956
 11
0.0
 21
0.0
 97
        0
 75
     0
 76
     1
 98
        0
  0
LINE
  5
6C
330
66
100
AcDbEntity
  8
0 (1) (1)
  6
K5LT_THIN
 62
     0
370
    18
100
AcDbLine
 10
0.0
 20
0.0
 30
0.0
 11
-1.0
 21
0.0
 31
0.0
  0
ENDBLK
  5
6E
330
66
100
AcDbEntity
  8
0
100
AcDbBlockEnd
  0
BLOCK
  5
77
330
6F
100
AcDbEntity
  8
0
100
AcDbBlockBegin
  2
KDIMARROW_06
 70
     0
 10
0.0
 20
0.0
 30
0.0
  3
KDIMARROW_06
  1

  0
LINE
  5
70
330
6F
100
AcDbEntity
  8
0
  6
K5LT_THIN
 62
     0
370
    18
100
AcDbLine
 10
0.0
 20
0.0
 30
0.0
 11
5.0
 21
-0.658262491226197
 31
0.0
  0
LINE
  5
71
330
6F
100
AcDbEntity
  8
0
  6
K5LT_THIN
 62
     0
370
    18
100
AcDbLine
 10
5.0
 20
-0.658262491226197
 30
0.0
 11
5.0
 21
-0.0000000000000006
 31
0.0
  0
LINE
  5
72
330
6F
100
AcDbEntity
  8
0
  6
K5LT_THIN
 62
     0
370
    18
100
AcDbLine
 10
5.0
 20
-0.0000000000000006
 30
0.0
 11
5.0
 21
0.6582624912261956
 31
0.0
  0
LINE
  5
73
330
6F
100
AcDbEntity
  8
0
  6
K5LT_THIN
 62
     0
370
    18
100
AcDbLine
 10
5.0
 20
0.6582624912261956
 30
0.0
 11
0.0
 21
0.0
 31
0.0
  0
LINE
  5
74
330
6F
100
AcDbEntity
  8
0
  6
K5LT_THIN
 62
     0
370
    18
100
AcDbLine
 10
0.0
 20
0.0
 30
0.0
 11
7.0
 21
-0.0000000000000009
 31
0.0
  0
HATCH
  5
75
330
6F
100
AcDbEntity
  8
0
 62
     0
100
AcDbHatch
 10
0.0
 20
0.0
 30
0.0
210
0.0
220
0.0
230
1.0
  2
SOLID
 70
     1
 71
     0
 91
        1
 92
        1
 93
        4
 72
     1
 10
5.0
 20
-0.0000000000000006
 11
5.0
 21
0.6582624912261956
 72
     1
 10
5.0
 20
0.6582624912261956
 11
0.0
 21
0.0
 72
     1
 10
0.0
 20
0.0
 11
5.0
 21
-0.658262491226197
 72
     1
 10
5.0
 20
-0.658262491226197
 11
5.0
 21
-0.0000000000000007
 97
        0
 75
     0
 76
     1
 98
        0
  0
LINE
  5
76
330
6F
100
AcDbEntity
  8
0 (1) (1)
  6
K5LT_THIN
 62
     0
370
    18
100
AcDbLine
 10
0.0
 20
0.0
 30
0.0
 11
-1.0
 21
0.0
 31
0.0
  0
ENDBLK
  5
78
330
6F
100
AcDbEntity
  8
0
100
AcDbBlockEnd
  0
BLOCK
  5
7D
330
79
100
AcDbEntity
  8
0
100
AcDbBlockBegin
  2
KDIMARROW_07
 70
     0
 10
0.0
 20
0.0
 30
0.0
  3
KDIMARROW_07
  1

  0
LINE
  5
7A
330
79
100
AcDbEntity
  8
0
  6
K5LT_THIN
 62
     0
370
    18
100
AcDbLine
 10
0.0
 20
0.0
 30
0.0
 11
-5.0
 21
-0.6582624912261956
 31
0.0
  0
LINE
  5
7B
330
79
100
AcDbEntity
  8
0
  6
K5LT_THIN
 62
     0
370
    18
100
AcDbLine
 10
0.0
 20
0.0
 30
0.0
 11
-5.0
 21
0.658262491226197
 31
0.0
  0
LINE
  5
7C
330
79
100
AcDbEntity
  8
0 (1) (1)
  6
K5LT_THIN
 62
     0
370
    18
100
AcDbLine
 10
0.0
 20
0.0
 30
0.0
 11
-1.0
 21
0.0
 31
0.0
  0
ENDBLK
  5
7E
330
79
100
AcDbEntity
  8
0
100
AcDbBlockEnd
  0
BLOCK
  5
84
330
7F
100
AcDbEntity
  8
0
100
AcDbBlockBegin
  2
KDIMARROW_08
 70
     0
 10
0.0
 20
0.0
 30
0.0
  3
KDIMARROW_08
  1

  0
LINE
  5
80
330
7F
100
AcDbEntity
  8
0
  6
K5LT_THIN
 62
     0
370
    18
100
AcDbLine
 10
0.0
 20
0.0
 30
0.0
 11
5.0
 21
-0.658262491226197
 31
0.0
  0
LINE
  5
81
330
7F
100
AcDbEntity
  8
0
  6
K5LT_THIN
 62
     0
370
    18
100
AcDbLine
 10
0.0
 20
0.0
 30
0.0
 11
5.0
 21
0.6582624912261956
 31
0.0
  0
LINE
  5
82
330
7F
100
AcDbEntity
  8
0
  6
K5LT_THIN
 62
     0
370
    18
100
AcDbLine
 10
0.0
 20
0.0
 30
0.0
 11
7.0
 21
-0.0000000000000009
 31
0.0
  0
LINE
  5
83
330
7F
100
AcDbEntity
  8
0 (1) (1)
  6
K5LT_THIN
 62
     0
370
    18
100
AcDbLine
 10
0.0
 20
0.0
 30
0.0
 11
-1.0
 21
0.0
 31
0.0
  0
ENDBLK
  5
85
330
7F
100
AcDbEntity
  8
0
100
AcDbBlockEnd
  0
BLOCK
  5
8A
330
86
100
AcDbEntity
  8
0
100
AcDbBlockBegin
  2
KDIMARROW_09
 70
     0
 10
0.0
 20
0.0
 30
0.0
  3
KDIMARROW_09
  1

  0
LINE
  5
87
330
86
100
AcDbEntity
  8
0
  6
K5LT_THIN
 62
     0
370
    18
100
AcDbLine
 10
0.0
 20
0.0
 30
0.0
 11
-2.0
 21
-2.0
 31
0.0
  0
LINE
  5
88
330
86
100
AcDbEntity
  8
0
  6
K5LT_THIN
 62
     0
370
    18
100
AcDbLine
 10
0.0
 20
0.0
 30
0.0
 11
-2.0
 21
2.0
 31
0.0
  0
LINE
  5
89
330
86
100
AcDbEntity
  8
0 (1) (1)
  6
K5LT_THIN
 62
     0
370
    18
100
AcDbLine
 10
0.0
 20
0.0
 30
0.0
 11
-1.0
 21
0.0
 31
0.0
  0
ENDBLK
  5
8B
330
86
100
AcDbEntity
  8
0
100
AcDbBlockEnd
  0
BLOCK
  5
91
330
8C
100
AcDbEntity
  8
0
100
AcDbBlockBegin
  2
KDIMARROW_10
 70
     0
 10
0.0
 20
0.0
 30
0.0
  3
KDIMARROW_10
  1

  0
LINE
  5
8D
330
8C
100
AcDbEntity
  8
0
  6
K5LT_THIN
 62
     0
370
    18
100
AcDbLine
 10
0.0
 20
0.0
 30
0.0
 11
2.0
 21
-2.0
 31
0.0
  0
LINE
  5
8E
330
8C
100
AcDbEntity
  8
0
  6
K5LT_THIN
 62
     0
370
    18
100
AcDbLine
 10
0.0
 20
0.0
 30
0.0
 11
2.0
 21
2.0
 31
0.0
  0
LINE
  5
8F
330
8C
100
AcDbEntity
  8
0
  6
K5LT_THIN
 62
     0
370
    18
100
AcDbLine
 10
0.0
 20
0.0
 30
0.0
 11
4.0
 21
-0.0000000000000005
 31
0.0
  0
LINE
  5
90
330
8C
100
AcDbEntity
  8
0 (1) (1)
  6
K5LT_THIN
 62
     0
370
    18
100
AcDbLine
 10
0.0
 20
0.0
 30
0.0
 11
-1.0
 21
0.0
 31
0.0
  0
ENDBLK
  5
92
330
8C
100
AcDbEntity
  8
0
100
AcDbBlockEnd
  0
BLOCK
  5
97
330
93
100
AcDbEntity
  8
0
100
AcDbBlockBegin
  2
KDIMARROW_11
 70
     0
 10
0.0
 20
0.0
 30
0.0
  3
KDIMARROW_11
  1

  0
CIRCLE
  5
94
330
93
100
AcDbEntity
  8
0
  6
K5LT_THIN
 62
     0
370
    18
100
AcDbCircle
 10
0.0
 20
0.0
 30
0.0
 40
2.5
  0
CIRCLE
  5
95
330
93
100
AcDbEntity
  8
0
  6
K5LT_THIN
 62
     0
370
    18
100
AcDbCircle
 10
0.0
 20
0.0
 30
0.0
 40
2.5
  0
LINE
  5
96
330
93
100
AcDbEntity
  8
0 (1) (1)
  6
K5LT_THIN
 62
     0
370
    18
100
AcDbLine
 10
0.0
 20
0.0
 30
0.0
 11
-1.0
 21
0.0
 31
0.0
  0
ENDBLK
  5
98
330
93
100
AcDbEntity
  8
0
100
AcDbBlockEnd
  0
BLOCK
  5
9D
330
99
100
AcDbEntity
  8
0
100
AcDbBlockBegin
  2
KDIMARROW_12
 70
     0
 10
0.0
 20
0.0
 30
0.0
  3
KDIMARROW_12
  1

  0
CIRCLE
  5
9A
330
99
100
AcDbEntity
  8
0
  6
K5LT_THIN
 62
     0
370
    18
100
AcDbCircle
 10
0.0
 20
0.0
 30
0.0
 40
1.5
  0
CIRCLE
  5
9B
330
99
100
AcDbEntity
  8
0
  6
K5LT_THIN
 62
     0
370
    18
100
AcDbCircle
 10
0.0
 20
0.0
 30
0.0
 40
1.5
  0
LINE
  5
9C
330
99
100
AcDbEntity
  8
0 (1) (1)
  6
K5LT_THIN
 62
     0
370
    18
100
AcDbLine
 10
0.0
 20
0.0
 30
0.0
 11
-1.0
 21
0.0
 31
0.0
  0
ENDBLK
  5
9E
330
99
100
AcDbEntity
  8
0
100
AcDbBlockEnd
  0
BLOCK
  5
A3
330
9F
100
AcDbEntity
  8
0
100
AcDbBlockBegin
  2
KDIMARROW_13
 70
     0
 10
0.0
 20
0.0
 30
0.0
  3
KDIMARROW_13
  1

  0
LINE
  5
A0
330
9F
100
AcDbEntity
  8
0
  6
K5LT_THIN
 62
     0
370
    18
100
AcDbLine
 10
-1.060500025749206
 20
1.060500025749207
 30
0.0
 11
1.060500025749206
 21
-1.060500025749207
 31
0.0
  0
LINE
  5
A1
330
9F
100
AcDbEntity
  8
0
  6
K5LT_THIN
 62
     0
370
    18
100
AcDbLine
 10
0.0
 20
0.0
 30
0.0
 11
2.0
 21
-0.0000000000000002
 31
0.0
  0
LINE
  5
A2
330
9F
100
AcDbEntity
  8
0 (1) (1)
  6
K5LT_THIN
 62
     0
370
    18
100
AcDbLine
 10
0.0
 20
0.0
 30
0.0
 11
-1.0
 21
0.0
 31
0.0
  0
ENDBLK
  5
A4
330
9F
100
AcDbEntity
  8
0
100
AcDbBlockEnd
  0
ENDSEC
  0
SECTION
  2
ENTITIES
  0
LINE
  5
A6
330
1F
100
AcDbEntity
  8
0
  6
K5LT32768
 62
     7
370
    18
100
AcDbLine
 10
52.74307012096634
 20
2.483657427027347
 30
0.0
 11
54.2751590072043
 21
3.769232646400425
 31
0.0
  0
LINE
  5
A7
330
1F
100
AcDbEntity
  8
0
  6
K5LT32768
 62
     7
370
    18
100
AcDbLine
 10
77.25649230077364
 20
23.0528609369966
 30
0.0
 11
78.7885811870116
 21
24.33843615636968
 31
0.0
  0
LINE
  5
A8
330
1F
100
AcDbEntity
  8
0
  6
K5LT32768
 62
     7
370
    18
100
AcDbLine
 10
7.660444431189779
 20
6.427876096865391
 30
0.0
 11
9.192533317427735
 21
7.713451316238469
 31
0.0
  0
LINE
  5
A9
330
1F
100
AcDbEntity
  8
0
  6
K5LT32768
 62
     7
370
    18
100
AcDbLine
 10
32.17386661099707
 20
26.99707960683464
 30
0.0
 11
33.70595549723503
 21
28.28265482620772
 31
0.0
  0
LINE
  5
AA
330
1F
100
AcDbEntity
  8
0
  6
K5LT32768
 62
     7
370
    18
100
AcDbLine
 10
56.68728879080437
 20
47.5662831168039
 30
0.0
 11
58.21937767704233
 21
48.85185833617698
 31
0.0
  0
LINE
  5
AB
330
1F
100
AcDbEntity
  8
0
  6
K5LT32768
 62
     7
370
    18
100
AcDbLine
 10
81.20071097061167
 20
68.13548662677316
 30
0.0
 11
82.73279985684962
 21
69.42106184614623
 31
0.0
  0
LINE
  5
AC
330
1F
100
AcDbEntity
  8
0
  6
K5LT32768
 62
     7
370
    18
100
AcDbLine
 10
11.60466310102782
 20
51.51050178664195
 30
0.0
 11
13.13675198726578
 21
52.79607700601503
 31
0.0
  0
LINE
  5
AD
330
1F
100
AcDbEntity
  8
0
  6
K5LT32768
 62
     7
370
    18
100
AcDbLine
 10
36.11808528083512
 20
72.0797052966112
 30
0.0
 11
37.65017416707308
 21
73.36528051598427
 31
0.0
  0
LINE
  5
AE
330
1F
100
AcDbEntity
  8
0
  6
K5LT32768
 62
     7
370
    18
100
AcDbLine
 10
60.63150746064241
 20
92.64890880658045
 30
0.0
 11
62.16359634688037
 21
93.93448402595354
 31
0.0
  0
LINE
  5
AF
330
1F
100
AcDbEntity
  8
0
  6
K5LT32768
 62
     7
370
    18
100
AcDbLine
 10
15.54888177086584
 20
96.5931274764185
 30
0.0
 11
17.0809706571038
 21
97.87870269579159
 31
0.0
  0
LINE
  5
B1
330
1F
100
AcDbEntity
  8
0
  6
K5LT32769
 62
     7
370
    18
100
AcDbLine
 10
82.73279985684962
 20
69.42106184614624
 30
0.0
 11
81.44722463747655
 21
70.9531507323842
 31
0.0
  0
LINE
  5
B2
330
1F
100
AcDbEntity
  8
0
  6
K5LT32769
 62
     7
370
    18
100
AcDbLine
 10
62.16359634688037
 20
93.93448402595354
 30
0.0
 11
60.87802112750729
 21
95.4665729121915
 31
0.0
  0
LINE
  5
B3
330
1F
100
AcDbEntity
  8
0
  6
K5LT32769
 62
     7
370
    18
100
AcDbLine
 10
99.21095398925317
 20
0.0
 30
0.0
 11
98.07220947760777
 21
1.357102862800349
 31
0.0
  0
LINE
  5
B4
330
1F
100
AcDbEntity
  8
0
  6
K5LT32769
 62
     7
370
    18
100
AcDbLine
 10
78.78858118701159
 20
24.33843615636969
 30
0.0
 11
77.50300596763852
 21
25.87052504260765
 31
0.0
  0
LINE
  5
B5
330
1F
100
AcDbEntity
  8
0
  6
K5LT32769
 62
     7
370
    18
100
AcDbLine
 10
58.21937767704233
 20
48.85185833617699
 30
0.0
 11
56.93380245766925
 21
50.38394722241495
 31
0.0
  0
LINE
  5
B6
330
1F
100
AcDbEntity
  8
0
  6
K5LT32769
 62
     7
370
    18
100
AcDbLine
 10
37.65017416707308
 20
73.36528051598428
 30
0.0
 11
36.3645989477
 21
74.89736940222224
 31
0.0
  0
LINE
  5
B7
330
1F
100
AcDbEntity
  8
0
  6
K5LT32769
 62
     7
370
    18
100
AcDbLine
 10
17.08097065710381
 20
97.87870269579159
 30
0.0
 11
15.79539543773073
 21
99.41079158202955
 31
0.0
  0
LINE
  5
B8
330
1F
100
AcDbEntity
  8
0
  6
K5LT32769
 62
     7
370
    18
100
AcDbLine
 10
54.27515900720429
 20
3.769232646400437
 30
0.0
 11
52.98958378783122
 21
5.301321532638394
 31
0.0
  0
LINE
  5
B9
330
1F
100
AcDbEntity
  8
0
  6
K5LT32769
 62
     7
370
    18
100
AcDbLine
 10
33.70595549723503
 20
28.28265482620773
 30
0.0
 11
32.42038027786195
 21
29.81474371244569
 31
0.0
  0
LINE
  5
BA
330
1F
100
AcDbEntity
  8
0
  6
K5LT32769
 62
     7
370
    18
100
AcDbLine
 10
13.13675198726576
 20
52.79607700601503
 30
0.0
 11
11.85117676789269
 21
54.32816589225299
 31
0.0
  0
LINE
  5
BB
330
1F
100
AcDbEntity
  8
0
  6
K5LT32769
 62
     7
370
    18
100
AcDbLine
 10
9.192533317427738
 20
7.713451316238472
 30
0.0
 11
7.906958098054659
 21
9.245540202476429
 31
0.0
  0
LINE
  5
BD
330
1F
100
AcDbEntity
  8
0
  6
K5LT32770
 62
     7
370
    18
100
AcDbLine
 10
97.95180724575802
 20
0.0
 30
0.0
 11
98.07051317016048
 21
1.356814924567765
 31
0.0
  0
LINE
  5
BE
330
1F
100
AcDbEntity
  8
0
  6
K5LT32770
 62
     7
370
    18
100
AcDbLine
 10
77.25521162907893
 20
23.05254850100218
 30
0.0
 11
77.50168807555382
 21
25.8697871756089
 31
0.0
  0
LINE
  5
BF
330
1F
100
AcDbEntity
  8
0
  6
K5LT32770
 62
     7
370
    18
100
AcDbLine
 10
81.19935750299533
 20
68.13434212958695
 30
0.0
 11
81.44583394947021
 21
70.95158080419367
 31
0.0
  0
LINE
  5
C0
330
1F
100
AcDbEntity
  8
0
  6
K5LT32770
 62
     7
370
    18
100
AcDbLine
 10
52.74224066055587
 20
2.48372712345852
 30
0.0
 11
52.98871710703076
 21
5.300965798065238
 31
0.0
  0
LINE
  5
C1
330
1F
100
AcDbEntity
  8
0
  6
K5LT32770
 62
     7
370
    18
100
AcDbLine
 10
56.68638653447227
 20
47.56552075204331
 30
0.0
 11
56.93286298094716
 21
50.38275942665003
 31
0.0
  0
LINE
  5
C2
330
1F
100
AcDbEntity
  8
0
  6
K5LT32770
 62
     7
370
    18
100
AcDbLine
 10
60.63053240838867
 20
92.6473143806281
 30
0.0
 11
60.87700885486355
 21
95.46455305523482
 31
0.0
  0
LINE
  5
C3
330
1F
100
AcDbEntity
  8
0
  6
K5LT32770
 62
     7
370
    18
100
AcDbLine
 10
32.17341548283103
 20
26.99669842445435
 30
0.0
 11
32.41989192930591
 21
29.81393709906107
 31
0.0
  0
LINE
  5
C4
330
1F
100
AcDbEntity
  8
0
  6
K5LT32770
 62
     7
370
    18
100
AcDbLine
 10
36.11756135674742
 20
72.07849205303913
 30
0.0
 11
36.36403780322231
 21
74.89573072764584
 31
0.0
  0
LINE
  5
C5
330
1F
100
AcDbEntity
  8
0
  6
K5LT32770
 62
     7
370
    18
100
AcDbLine
 10
7.660444431189781
 20
6.427876096865395
 30
0.0
 11
7.906920877664668
 21
9.245114771472114
 31
0.0
  0
LINE
  5
C6
330
1F
100
AcDbEntity
  8
0
  6
K5LT32770
 62
     7
370
    18
100
AcDbLine
 10
11.60459030510617
 20
51.50966972545018
 30
0.0
 11
11.85106675158106
 21
54.3269084000569
 31
0.0
  0
LINE
  5
C7
330
1F
100
AcDbEntity
  8
0
  6
K5LT32770
 62
     7
370
    18
100
AcDbLine
 10
15.54873617902257
 20
96.59146335403497
 30
0.0
 11
15.79521262549746
 21
99.40870202864168
 31
0.0
  0
LINE
  5
C9
330
1F
100
AcDbEntity
  8
0
  6
K5LT32771
 62
     7
370
    18
100
AcDbLine
 10
80.61815915963182
 20
3.426264237340509
 30
0.0
 11
81.61815915963182
 21
5.158315044909386
 31
0.0
  0
LINE
  5
CA
330
1F
100
AcDbEntity
  8
0
  6
K5LT32771
 62
     7
370
    18
100
AcDbLine
 10
96.61815915963182
 20
31.13907715844255
 30
0.0
 11
97.61815915963182
 21
32.87112796601143
 31
0.0
  0
LINE
  5
CB
330
1F
100
AcDbEntity
  8
0
  6
K5LT32771
 62
     7
370
    18
100
AcDbLine
 10
52.90534623852977
 20
19.42626423734051
 30
0.0
 11
53.90534623852977
 21
21.15831504490939
 31
0.0
  0
LINE
  5
CC
330
1F
100
AcDbEntity
  8
0
  6
K5LT32771
 62
     7
370
    18
100
AcDbLine
 10
68.90534623852977
 20
47.13907715844255
 30
0.0
 11
69.90534623852977
 21
48.87112796601142
 31
0.0
  0
LINE
  5
CD
330
1F
100
AcDbEntity
  8
0
  6
K5LT32771
 62
     7
370
    18
100
AcDbLine
 10
84.90534623852977
 20
74.85189007954457
 30
0.0
 11
85.90534623852977
 21
76.58394088711346
 31
0.0
  0
LINE
  5
CE
330
1F
100
AcDbEntity
  8
0
  6
K5LT32771
 62
     7
370
    18
100
AcDbLine
 10
9.192533317427731
 20
7.713451316238473
 30
0.0
 11
10.19253331742773
 21
9.44550212380735
 31
0.0
  0
LINE
  5
CF
330
1F
100
AcDbEntity
  8
0
  6
K5LT32771
 62
     7
370
    18
100
AcDbLine
 10
25.19253331742774
 20
35.42626423734051
 30
0.0
 11
26.19253331742774
 21
37.15831504490939
 31
0.0
  0
LINE
  5
D0
330
1F
100
AcDbEntity
  8
0
  6
K5LT32771
 62
     7
370
    18
100
AcDbLine
 10
41.19253331742775
 20
63.13907715844255
 30
0.0
 11
42.19253331742775
 21
64.87112796601143
 31
0.0
  0
LINE
  5
D1
330
1F
100
AcDbEntity
  8
0
  6
K5LT32771
 62
     7
370
    18
100
AcDbLine
 10
57.19253331742775
 20
90.85189007954457
 30
0.0
 11
58.19253331742775
 21
92.58394088711346
 31
0.0
  0
LINE
  5
D2
330
1F
100
AcDbEntity
  8
0
  6
K5LT32771
 62
     7
370
    18
100
AcDbLine
 10
13.47972039632569
 20
79.13907715844253
 30
0.0
 11
14.47972039632569
 21
80.87112796601141
 31
0.0
  0
LINE
  5
D4
330
1F
100
AcDbEntity
  8
0
  6
K5LT32772
 62
     7
370
    18
100
AcDbLine
 10
85.90507679022728
 20
76.58366222257283
 30
0.0
 11
84.1730259826584
 21
77.58366222257283
 31
0.0
  0
LINE
  5
D5
330
1F
100
AcDbEntity
  8
0
  6
K5LT32772
 62
     7
370
    18
100
AcDbLine
 10
58.19226386912524
 20
92.58366222257283
 30
0.0
 11
56.46021306155637
 21
93.58366222257283
 31
0.0
  0
LINE
  5
D6
330
1F
100
AcDbEntity
  8
0
  6
K5LT32772
 62
     7
370
    18
100
AcDbLine
 10
97.61788971132931
 20
32.87084930147081
 30
0.0
 11
95.88583890376043
 21
33.87084930147081
 31
0.0
  0
LINE
  5
D7
330
1F
100
AcDbEntity
  8
0
  6
K5LT32772
 62
     7
370
    18
100
AcDbLine
 10
69.90507679022727
 20
48.87084930147081
 30
0.0
 11
68.17302598265839
 21
49.87084930147081
 31
0.0
  0
LINE
  5
D8
330
1F
100
AcDbEntity
  8
0
  6
K5LT32772
 62
     7
370
    18
100
AcDbLine
 10
42.19226386912523
 20
64.87084930147081
 30
0.0
 11
40.46021306155635
 21
65.87084930147081
 31
0.0
  0
LINE
  5
D9
330
1F
100
AcDbEntity
  8
0
  6
K5LT32772
 62
     7
370
    18
100
AcDbLine
 10
14.4794509480232
 20
80.8708493014708
 30
0.0
 11
12.74740014045432
 21
81.8708493014708
 31
0.0
  0
LINE
  5
DA
330
1F
100
AcDbEntity
  8
0
  6
K5LT32772
 62
     7
370
    18
100
AcDbLine
 10
81.61788971132933
 20
5.158036380368769
 30
0.0
 11
79.88583890376044
 21
6.158036380368769
 31
0.0
  0
LINE
  5
DB
330
1F
100
AcDbEntity
  8
0
  6
K5LT32772
 62
     7
370
    18
100
AcDbLine
 10
53.90507679022728
 20
21.15803638036876
 30
0.0
 11
52.17302598265841
 21
22.15803638036876
 31
0.0
  0
LINE
  5
DC
330
1F
100
AcDbEntity
  8
0
  6
K5LT32772
 62
     7
370
    18
100
AcDbLine
 10
26.19226386912525
 20
37.15803638036876
 30
0.0
 11
24.46021306155637
 21
38.15803638036876
 31
0.0
  0
LINE
  5
DD
330
1F
100
AcDbEntity
  8
0
  6
K5LT32772
 62
     7
370
    18
100
AcDbLine
 10
10.19226386912525
 20
9.445223459266725
 30
0.0
 11
8.460213061556368
 21
10.44522345926672
 31
0.0
  0
LINE
  5
DF
330
1F
100
AcDbEntity
  8
0
  6
K5LT32773
 62
     7
370
    18
100
AcDbLine
 10
96.61655285564022
 20
31.13863983937111
 30
0.0
 11
95.8846125783186
 21
33.87027814244146
 31
0.0
  0
LINE
  5
E0
330
1F
100
AcDbEntity
  8
0
  6
K5LT32773
 62
     7
370
    18
100
AcDbLine
 10
84.90395611043587
 20
74.85064598103966
 30
0.0
 11
84.17201583311424
 21
77.58228428411
 31
0.0
  0
LINE
  5
E1
330
1F
100
AcDbEntity
  8
0
  6
K5LT32773
 62
     7
370
    18
100
AcDbLine
 10
80.61684615856748
 20
3.426340328637668
 30
0.0
 11
79.88490588124586
 21
6.157978631708016
 31
0.0
  0
LINE
  5
E2
330
1F
100
AcDbEntity
  8
0
  6
K5LT32773
 62
     7
370
    18
100
AcDbLine
 10
68.90424941336312
 20
47.13834647030619
 30
0.0
 11
68.17230913604149
 21
49.86998477337654
 31
0.0
  0
LINE
  5
E3
330
1F
100
AcDbEntity
  8
0
  6
K5LT32773
 62
     7
370
    18
100
AcDbLine
 10
57.19165266815875
 20
90.85035261197471
 30
0.0
 11
56.45971239083713
 21
93.58199091504505
 31
0.0
  0
LINE
  5
E4
330
1F
100
AcDbEntity
  8
0
  6
K5LT32773
 62
     7
370
    18
100
AcDbLine
 10
52.90454296311944
 20
19.42604603839412
 30
0.0
 11
52.17260268579782
 21
22.15768434146447
 31
0.0
  0
LINE
  5
E5
330
1F
100
AcDbEntity
  8
0
  6
K5LT32773
 62
     7
370
    18
100
AcDbLine
 10
41.19194621791507
 20
63.13805218006266
 30
0.0
 11
40.46000594059345
 21
65.86969048313301
 31
0.0
  0
LINE
  5
E6
330
1F
100
AcDbEntity
  8
0
  6
K5LT32773
 62
     7
370
    18
100
AcDbLine
 10
25.19223976767141
 20
35.42575174815055
 30
0.0
 11
24.46029949034979
 21
38.1573900512209
 31
0.0
  0
LINE
  5
E7
330
1F
100
AcDbEntity
  8
0
  6
K5LT32773
 62
     7
370
    18
100
AcDbLine
 10
13.47964302246705
 20
79.13775788981908
 30
0.0
 11
12.74770274514542
 21
81.86939619288943
 31
0.0
  0
LINE
  5
E8
330
1F
100
AcDbEntity
  8
0
  6
K5LT32773
 62
     7
370
    18
100
AcDbLine
 10
9.192533317427738
 20
7.713451316238473
 30
0.0
 11
8.460593040106115
 21
10.44508961930882
 31
0.0
  0
LINE
  5
EA
330
1F
100
AcDbEntity
  8
0
  6
K5LT32774
 62
     7
370
    18
100
AcDbLine
 10
95.14519411308808
 20
0.3362972885828885
 30
0.0
 11
95.40566637958848
 21
1.813508918101201
 31
0.0
  0
LINE
  5
EB
330
1F
100
AcDbEntity
  8
0
  6
K5LT32774
 62
     7
370
    18
100
AcDbLine
 10
99.74687082126172
 20
26.4337027434064
 30
0.0
 11
100.0
 21
27.86926965279961
 31
0.0
  0
LINE
  5
EC
330
1F
100
AcDbEntity
  8
0
  6
K5LT32774
 62
     7
370
    18
100
AcDbLine
 10
69.04778865826457
 20
4.937973996756547
 30
0.0
 11
69.30826092476497
 21
6.415185626274859
 31
0.0
  0
LINE
  5
ED
330
1F
100
AcDbEntity
  8
0
  6
K5LT32774
 62
     7
370
    18
100
AcDbLine
 10
73.64946536643824
 20
31.03537945158006
 30
0.0
 11
73.90993763293864
 21
32.51259108109837
 31
0.0
  0
LINE
  5
EE
330
1F
100
AcDbEntity
  8
0
  6
K5LT32774
 62
     7
370
    18
100
AcDbLine
 10
78.25114207461189
 20
57.13278490640357
 30
0.0
 11
78.51161434111229
 21
58.60999653592189
 31
0.0
  0
LINE
  5
EF
330
1F
100
AcDbEntity
  8
0
  6
K5LT32774
 62
     7
370
    18
100
AcDbLine
 10
82.85281878278555
 20
83.23019036122709
 30
0.0
 11
83.11329104928595
 21
84.7074019907454
 31
0.0
  0
LINE
  5
F0
330
1F
100
AcDbEntity
  8
0
  6
K5LT32774
 62
     7
370
    18
100
AcDbLine
 10
42.95038320344104
 20
9.539650704930205
 30
0.0
 11
43.21085546994144
 21
11.01686233444852
 31
0.0
  0
LINE
  5
F1
330
1F
100
AcDbEntity
  8
0
  6
K5LT32774
 62
     7
370
    18
100
AcDbLine
 10
47.5520599116147
 20
35.63705615975372
 30
0.0
 11
47.81253217811509
 21
37.11426778927203
 31
0.0
  0
LINE
  5
F2
330
1F
100
AcDbEntity
  8
0
  6
K5LT32774
 62
     7
370
    18
100
AcDbLine
 10
52.15373661978835
 20
61.73446161457724
 30
0.0
 11
52.41420888628875
 21
63.21167324409556
 31
0.0
  0
LINE
  5
F3
330
1F
100
AcDbEntity
  8
0
  6
K5LT32774
 62
     7
370
    18
100
AcDbLine
 10
56.75541332796201
 20
87.83186706940076
 30
0.0
 11
57.0158855944624
 21
89.30907869891907
 31
0.0
  0
LINE
  5
F4
330
1F
100
AcDbEntity
  8
0
  6
K5LT32774
 62
     7
370
    18
100
AcDbLine
 10
16.85297774861752
 20
14.14132741310386
 30
0.0
 11
17.11345001511792
 21
15.61853904262217
 31
0.0
  0
LINE
  5
F5
330
1F
100
AcDbEntity
  8
0
  6
K5LT32774
 62
     7
370
    18
100
AcDbLine
 10
21.45465445679118
 20
40.23873286792738
 30
0.0
 11
21.71512672329158
 21
41.7159444974457
 31
0.0
  0
LINE
  5
F6
330
1F
100
AcDbEntity
  8
0
  6
K5LT32774
 62
     7
370
    18
100
AcDbLine
 10
26.05633116496484
 20
66.3361383227509
 30
0.0
 11
26.31680343146524
 21
67.8133499522692
 31
0.0
  0
LINE
  5
F7
330
1F
100
AcDbEntity
  8
0
  6
K5LT32774
 62
     7
370
    18
100
AcDbLine
 10
30.65800787313849
 20
92.43354377757441
 30
0.0
 11
30.91848013963889
 21
93.91075540709272
 31
0.0
  0
LINE
  5
F8
330
1F
100
AcDbEntity
  8
0
  6
K5LT32774
 62
     7
370
    18
100
AcDbLine
 10
-0.0000000000000018
 20
71.17075890425382
 30
0.0
 11
0.219397976641705
 21
72.41502666044283
 31
0.0
  0
LINE
  5
F9
330
1F
100
AcDbEntity
  8
0
  6
K5LT32774
 62
     7
370
    18
100
AcDbLine
 10
4.560602418314967
 20
97.03522048574804
 30
0.0
 11
4.821074684815363
 21
98.51243211526635
 31
0.0
  0
LINE
  5
FB
330
1F
100
AcDbEntity
  8
0
  6
K5LT32775
 62
     7
370
    18
100
AcDbLine
 10
83.11335672935155
 20
84.70722026558562
 30
0.0
 11
81.63614509983324
 21
84.96769253208602
 31
0.0
  0
LINE
  5
FC
330
1F
100
AcDbEntity
  8
0
  6
K5LT32775
 62
     7
370
    18
100
AcDbLine
 10
57.01595127452804
 20
89.30889697375927
 30
0.0
 11
55.53873964500972
 21
89.56936924025968
 31
0.0
  0
LINE
  5
FD
330
1F
100
AcDbEntity
  8
0
  6
K5LT32775
 62
     7
370
    18
100
AcDbLine
 10
30.91854581970452
 20
93.91057368193293
 30
0.0
 11
29.44133419018621
 21
94.17104594843333
 31
0.0
  0
LINE
  5
FE
330
1F
100
AcDbEntity
  8
0
  6
K5LT32775
 62
     7
370
    18
100
AcDbLine
 10
4.821140364881007
 20
98.51225039010657
 30
0.0
 11
3.343928735362695
 21
98.77272265660697
 31
0.0
  0
LINE
  5
FF
330
1F
100
AcDbEntity
  8
0
  6
K5LT32775
 62
     7
370
    18
100
AcDbLine
 10
78.51168002117788
 20
58.60981481076209
 30
0.0
 11
77.03446839165957
 21
58.87028707726248
 31
0.0
  0
LINE
  5
100
330
1F
100
AcDbEntity
  8
0
  6
K5LT32775
 62
     7
370
    18
100
AcDbLine
 10
52.41427456635436
 20
63.21149151893574
 30
0.0
 11
50.93706293683605
 21
63.47196378543613
 31
0.0
  0
LINE
  5
101
330
1F
100
AcDbEntity
  8
0
  6
K5LT32775
 62
     7
370
    18
100
AcDbLine
 10
26.31686911153085
 20
67.81316822710939
 30
0.0
 11
24.83965748201254
 21
68.07364049360979
 31
0.0
  0
LINE
  5
102
330
1F
100
AcDbEntity
  8
0
  6
K5LT32775
 62
     7
370
    18
100
AcDbLine
 10
0.2194636567073331
 20
72.41484493528304
 30
0.0
 11
0.0
 21
72.45354229924548
 31
0.0
  0
LINE
  5
103
330
1F
100
AcDbEntity
  8
0
  6
K5LT32775
 62
     7
370
    18
100
AcDbLine
 10
100.0
 20
27.91203901342676
 30
0.0
 11
98.53019713830946
 21
28.17120491426531
 31
0.0
  0
LINE
  5
104
330
1F
100
AcDbEntity
  8
0
  6
K5LT32775
 62
     7
370
    18
100
AcDbLine
 10
73.91000331300425
 20
32.51240935593857
 30
0.0
 11
72.43279168348595
 21
32.77288162243897
 31
0.0
  0
LINE
  5
105
330
1F
100
AcDbEntity
  8
0
  6
K5LT32775
 62
     7
370
    18
100
AcDbLine
 10
47.81259785818074
 20
37.11408606411223
 30
0.0
 11
46.33538622866242
 21
37.37455833061262
 31
0.0
  0
LINE
  5
106
330
1F
100
AcDbEntity
  8
0
  6
K5LT32775
 62
     7
370
    18
100
AcDbLine
 10
21.71519240335721
 20
41.71576277228588
 30
0.0
 11
20.2379807738389
 21
41.97623503878627
 31
0.0
  0
LINE
  5
107
330
1F
100
AcDbEntity
  8
0
  6
K5LT32775
 62
     7
370
    18
100
AcDbLine
 10
95.40573205965411
 20
1.813327192941401
 30
0.0
 11
93.9285204301358
 21
2.073799459441797
 31
0.0
  0
LINE
  5
108
330
1F
100
AcDbEntity
  8
0
  6
K5LT32775
 62
     7
370
    18
100
AcDbLine
 10
69.3083266048306
 20
6.415003901115054
 30
0.0
 11
67.83111497531229
 21
6.675476167615449
 31
0.0
  0
LINE
  5
109
330
1F
100
AcDbEntity
  8
0
  6
K5LT32775
 62
     7
370
    18
100
AcDbLine
 10
43.21092115000708
 20
11.01668060928871
 30
0.0
 11
41.73370952048877
 21
11.2771528757891
 31
0.0
  0
LINE
  5
10A
330
1F
100
AcDbEntity
  8
0
  6
K5LT32775
 62
     7
370
    18
100
AcDbLine
 10
17.11351569518357
 20
15.61835731746236
 30
0.0
 11
15.63630406566525
 21
15.87882958396275
 31
0.0
  0
LINE
  5
10C
330
1F
100
AcDbEntity
  8
0
  6
K5LT32776
 62
     7
370
    18
100
AcDbLine
 10
82.85167149677002
 20
83.22896900338179
 30
0.0
 11
81.63511584573118
 21
84.96639053150378
 31
0.0
  0
LINE
  5
10D
330
1F
100
AcDbEntity
  8
0
  6
K5LT32776
 62
     7
370
    18
100
AcDbLine
 10
99.74542269202736
 20
26.43348433476511
 30
0.0
 11
98.52886704098852
 21
28.17090586288709
 31
0.0
  0
LINE
  5
10E
330
1F
100
AcDbEntity
  8
0
  6
K5LT32776
 62
     7
370
    18
100
AcDbLine
 10
78.25007239635974
 20
57.13202601374635
 30
0.0
 11
77.0335167453209
 21
58.86944754186834
 31
0.0
  0
LINE
  5
10F
330
1F
100
AcDbEntity
  8
0
  6
K5LT32776
 62
     7
370
    18
100
AcDbLine
 10
56.75472210069212
 20
87.8305676927276
 30
0.0
 11
55.53816644965327
 21
89.56798922084958
 31
0.0
  0
LINE
  5
110
330
1F
100
AcDbEntity
  8
0
  6
K5LT32776
 62
     7
370
    18
100
AcDbLine
 10
95.14382550613499
 20
0.3365386109147226
 30
0.0
 11
93.92726985509614
 21
2.073960139036704
 31
0.0
  0
LINE
  5
111
330
1F
100
AcDbEntity
  8
0
  6
K5LT32776
 62
     7
370
    18
100
AcDbLine
 10
73.64847521046737
 20
31.03508028989596
 30
0.0
 11
72.43191955942852
 21
32.77250181801794
 31
0.0
  0
LINE
  5
112
330
1F
100
AcDbEntity
  8
0
  6
K5LT32776
 62
     7
370
    18
100
AcDbLine
 10
52.15312491479975
 20
61.7336219688772
 30
0.0
 11
50.9365692637609
 21
63.47104349699919
 31
0.0
  0
LINE
  5
113
330
1F
100
AcDbEntity
  8
0
  6
K5LT32776
 62
     7
370
    18
100
AcDbLine
 10
30.65777461913212
 20
92.43216364785843
 30
0.0
 11
29.44121896809327
 21
94.16958517598042
 31
0.0
  0
LINE
  5
114
330
1F
100
AcDbEntity
  8
0
  6
K5LT32776
 62
     7
370
    18
100
AcDbLine
 10
69.04687802457502
 20
4.938134566045569
 30
0.0
 11
67.83032237353618
 21
6.675556094167551
 31
0.0
  0
LINE
  5
115
330
1F
100
AcDbEntity
  8
0
  6
K5LT32776
 62
     7
370
    18
100
AcDbLine
 10
47.55152772890739
 20
35.63667624502681
 30
0.0
 11
46.33497207786855
 21
37.3740977731488
 31
0.0
  0
LINE
  5
116
330
1F
100
AcDbEntity
  8
0
  6
K5LT32776
 62
     7
370
    18
100
AcDbLine
 10
26.05617743323977
 20
66.33521792400805
 30
0.0
 11
24.83962178220092
 21
68.07263945213003
 31
0.0
  0
LINE
  5
117
330
1F
100
AcDbEntity
  8
0
  6
K5LT32776
 62
     7
370
    18
100
AcDbLine
 10
4.56082713757214
 20
97.03375960298929
 30
0.0
 11
3.344271486533295
 21
98.77118113111128
 31
0.0
  0
LINE
  5
118
330
1F
100
AcDbEntity
  8
0
  6
K5LT32776
 62
     7
370
    18
100
AcDbLine
 10
42.94993054301504
 20
9.539730521176413
 30
0.0
 11
41.73337489197619
 21
11.27715204929839
 31
0.0
  0
LINE
  5
119
330
1F
100
AcDbEntity
  8
0
  6
K5LT32776
 62
     7
370
    18
100
AcDbLine
 10
21.45458024734741
 20
40.23827220015764
 30
0.0
 11
20.23802459630856
 21
41.97569372827962
 31
0.0
  0
LINE
  5
11A
330
1F
100
AcDbEntity
  8
0
  6
K5LT32776
 62
     7
370
    18
100
AcDbLine
 10
16.85298306145505
 20
14.14132647630726
 30
0.0
 11
15.6364274104162
 21
15.87874800442924
 31
0.0
  0
LINE
  5
11C
330
1F
100
AcDbEntity
  8
0
  6
K5LT32777
 62
     7
370
    18
100
AcDbLine
 10
98.92461393887264
 20
53.72630254585951
 30
0.0
 11
98.7509657612057
 21
54.71111029887172
 31
0.0
  0
LINE
  5
11D
330
1F
100
AcDbEntity
  8
0
  6
K5LT32777
 62
     7
370
    18
100
AcDbLine
 10
96.14624309620176
 20
69.48322659405484
 30
0.0
 11
95.97259491853482
 21
70.46803434706705
 31
0.0
  0
LINE
  5
11E
330
1F
100
AcDbEntity
  8
0
  6
K5LT32777
 62
     7
370
    18
100
AcDbLine
 10
93.36787225353088
 20
85.24015064225017
 30
0.0
 11
93.19422407586394
 21
86.22495839526238
 31
0.0
  0
LINE
  5
11F
330
1F
100
AcDbEntity
  8
0
  6
K5LT32777
 62
     7
370
    18
100
AcDbLine
 10
91.50280241868995
 20
3.677159558602627
 30
0.0
 11
91.32915424102302
 21
4.661967311614836
 31
0.0
  0
LINE
  5
120
330
1F
100
AcDbEntity
  8
0
  6
K5LT32777
 62
     7
370
    18
100
AcDbLine
 10
88.72443157601907
 20
19.43408360679796
 30
0.0
 11
88.55078339835214
 21
20.41889135981017
 31
0.0
  0
LINE
  5
121
330
1F
100
AcDbEntity
  8
0
  6
K5LT32777
 62
     7
370
    18
100
AcDbLine
 10
85.94606073334819
 20
35.19100765499329
 30
0.0
 11
85.77241255568126
 21
36.1758154080055
 31
0.0
  0
LINE
  5
122
330
1F
100
AcDbEntity
  8
0
  6
K5LT32777
 62
     7
370
    18
100
AcDbLine
 10
83.16768989067731
 20
50.94793170318862
 30
0.0
 11
82.99404171301038
 21
51.93273945620083
 31
0.0
  0
LINE
  5
123
330
1F
100
AcDbEntity
  8
0
  6
K5LT32777
 62
     7
370
    18
100
AcDbLine
 10
80.38931904800643
 20
66.70485575138395
 30
0.0
 11
80.2156708703395
 21
67.68966350439615
 31
0.0
  0
LINE
  5
124
330
1F
100
AcDbEntity
  8
0
  6
K5LT32777
 62
     7
370
    18
100
AcDbLine
 10
77.61094820533555
 20
82.46177979957928
 30
0.0
 11
77.43730002766861
 21
83.44658755259148
 31
0.0
  0
LINE
  5
125
330
1F
100
AcDbEntity
  8
0
  6
K5LT32777
 62
     7
370
    18
100
AcDbLine
 10
74.83257736266465
 20
98.21870384777462
 30
0.0
 11
74.65892918499772
 21
99.20351160078683
 31
0.0
  0
LINE
  5
126
330
1F
100
AcDbEntity
  8
0
  6
K5LT32777
 62
     7
370
    18
100
AcDbLine
 10
75.74587837049464
 20
0.898788715931748
 30
0.0
 11
75.5722301928277
 21
1.883596468943956
 31
0.0
  0
LINE
  5
127
330
1F
100
AcDbEntity
  8
0
  6
K5LT32777
 62
     7
370
    18
100
AcDbLine
 10
72.96750752782376
 20
16.65571276412708
 30
0.0
 11
72.79385935015682
 21
17.64052051713929
 31
0.0
  0
LINE
  5
128
330
1F
100
AcDbEntity
  8
0
  6
K5LT32777
 62
     7
370
    18
100
AcDbLine
 10
70.18913668515287
 20
32.41263681232241
 30
0.0
 11
70.01548850748594
 21
33.39744456533462
 31
0.0
  0
LINE
  5
129
330
1F
100
AcDbEntity
  8
0
  6
K5LT32777
 62
     7
370
    18
100
AcDbLine
 10
67.410765842482
 20
48.16956086051774
 30
0.0
 11
67.23711766481506
 21
49.15436861352995
 31
0.0
  0
LINE
  5
12A
330
1F
100
AcDbEntity
  8
0
  6
K5LT32777
 62
     7
370
    18
100
AcDbLine
 10
64.63239499981111
 20
63.92648490871307
 30
0.0
 11
64.45874682214418
 21
64.91129266172528
 31
0.0
  0
LINE
  5
12B
330
1F
100
AcDbEntity
  8
0
  6
K5LT32777
 62
     7
370
    18
100
AcDbLine
 10
61.85402415714022
 20
79.68340895690841
 30
0.0
 11
61.68037597947329
 21
80.66821670992061
 31
0.0
  0
LINE
  5
12C
330
1F
100
AcDbEntity
  8
0
  6
K5LT32777
 62
     7
370
    18
100
AcDbLine
 10
59.07565331446933
 20
95.44033300510372
 30
0.0
 11
58.90200513680241
 21
96.42514075811593
 31
0.0
  0
LINE
  5
12D
330
1F
100
AcDbEntity
  8
0
  6
K5LT32777
 62
     7
370
    18
100
AcDbLine
 10
57.21058347962842
 20
13.8773419214562
 30
0.0
 11
57.03693530196148
 21
14.86214967446841
 31
0.0
  0
LINE
  5
12E
330
1F
100
AcDbEntity
  8
0
  6
K5LT32777
 62
     7
370
    18
100
AcDbLine
 10
54.43221263695753
 20
29.63426596965153
 30
0.0
 11
54.2585644592906
 21
30.61907372266374
 31
0.0
  0
LINE
  5
12F
330
1F
100
AcDbEntity
  8
0
  6
K5LT32777
 62
     7
370
    18
100
AcDbLine
 10
51.65384179428664
 20
45.39119001784686
 30
0.0
 11
51.48019361661972
 21
46.37599777085907
 31
0.0
  0
LINE
  5
130
330
1F
100
AcDbEntity
  8
0
  6
K5LT32777
 62
     7
370
    18
100
AcDbLine
 10
48.87547095161576
 20
61.14811406604219
 30
0.0
 11
48.70182277394883
 21
62.1329218190544
 31
0.0
  0
LINE
  5
131
330
1F
100
AcDbEntity
  8
0
  6
K5LT32777
 62
     7
370
    18
100
AcDbLine
 10
46.09710010894488
 20
76.90503811423753
 30
0.0
 11
45.92345193127795
 21
77.88984586724973
 31
0.0
  0
LINE
  5
132
330
1F
100
AcDbEntity
  8
0
  6
K5LT32777
 62
     7
370
    18
100
AcDbLine
 10
43.318729266274
 20
92.66196216243286
 30
0.0
 11
43.14508108860707
 21
93.64676991544506
 31
0.0
  0
LINE
  5
133
330
1F
100
AcDbEntity
  8
0
  6
K5LT32777
 62
     7
370
    18
100
AcDbLine
 10
41.45365943143309
 20
11.09897107878532
 30
0.0
 11
41.28001125376615
 21
12.08377883179753
 31
0.0
  0
LINE
  5
134
330
1F
100
AcDbEntity
  8
0
  6
K5LT32777
 62
     7
370
    18
100
AcDbLine
 10
38.6752885887622
 20
26.85589512698065
 30
0.0
 11
38.50164041109527
 21
27.84070287999286
 31
0.0
  0
LINE
  5
135
330
1F
100
AcDbEntity
  8
0
  6
K5LT32777
 62
     7
370
    18
100
AcDbLine
 10
35.89691774609131
 20
42.61281917517598
 30
0.0
 11
35.72326956842438
 21
43.59762692818818
 31
0.0
  0
LINE
  5
136
330
1F
100
AcDbEntity
  8
0
  6
K5LT32777
 62
     7
370
    18
100
AcDbLine
 10
33.11854690342042
 20
58.3697432233713
 30
0.0
 11
32.94489872575349
 21
59.35455097638351
 31
0.0
  0
LINE
  5
137
330
1F
100
AcDbEntity
  8
0
  6
K5LT32777
 62
     7
370
    18
100
AcDbLine
 10
30.34017606074954
 20
74.12666727156663
 30
0.0
 11
30.16652788308261
 21
75.11147502457884
 31
0.0
  0
LINE
  5
138
330
1F
100
AcDbEntity
  8
0
  6
K5LT32777
 62
     7
370
    18
100
AcDbLine
 10
27.56180521807866
 20
89.88359131976196
 30
0.0
 11
27.38815704041173
 21
90.86839907277417
 31
0.0
  0
LINE
  5
139
330
1F
100
AcDbEntity
  8
0
  6
K5LT32777
 62
     7
370
    18
100
AcDbLine
 10
25.69673538323775
 20
8.32060023611443
 30
0.0
 11
25.52308720557082
 21
9.305407989126639
 31
0.0
  0
LINE
  5
13A
330
1F
100
AcDbEntity
  8
0
  6
K5LT32777
 62
     7
370
    18
100
AcDbLine
 10
22.91836454056687
 20
24.07752428430976
 30
0.0
 11
22.74471636289994
 21
25.06233203732197
 31
0.0
  0
LINE
  5
13B
330
1F
100
AcDbEntity
  8
0
  6
K5LT32777
 62
     7
370
    18
100
AcDbLine
 10
20.13999369789599
 20
39.83444833250509
 30
0.0
 11
19.96634552022905
 21
40.8192560855173
 31
0.0
  0
LINE
  5
13C
330
1F
100
AcDbEntity
  8
0
  6
K5LT32777
 62
     7
370
    18
100
AcDbLine
 10
17.3616228552251
 20
55.59137238070042
 30
0.0
 11
17.18797467755817
 21
56.57618013371263
 31
0.0
  0
LINE
  5
13D
330
1F
100
AcDbEntity
  8
0
  6
K5LT32777
 62
     7
370
    18
100
AcDbLine
 10
14.58325201255422
 20
71.34829642889575
 30
0.0
 11
14.40960383488729
 21
72.33310418190796
 31
0.0
  0
LINE
  5
13E
330
1F
100
AcDbEntity
  8
0
  6
K5LT32777
 62
     7
370
    18
100
AcDbLine
 10
11.80488116988333
 20
87.10522047709108
 30
0.0
 11
11.6312329922164
 21
88.09002823010329
 31
0.0
  0
LINE
  5
13F
330
1F
100
AcDbEntity
  8
0
  6
K5LT32777
 62
     7
370
    18
100
AcDbLine
 10
9.939811335042418
 20
5.542229393443555
 30
0.0
 11
9.766163157375487
 21
6.527037146455763
 31
0.0
  0
LINE
  5
140
330
1F
100
AcDbEntity
  8
0
  6
K5LT32777
 62
     7
370
    18
100
AcDbLine
 10
7.161440492371533
 20
21.29915344163889
 30
0.0
 11
6.987792314704603
 21
22.28396119465109
 31
0.0
  0
LINE
  5
141
330
1F
100
AcDbEntity
  8
0
  6
K5LT32777
 62
     7
370
    18
100
AcDbLine
 10
4.383069649700648
 20
37.05607748983422
 30
0.0
 11
4.209421472033718
 21
38.04088524284642
 31
0.0
  0
LINE
  5
142
330
1F
100
AcDbEntity
  8
0
  6
K5LT32777
 62
     7
370
    18
100
AcDbLine
 10
1.604698807029763
 20
52.81300153802955
 30
0.0
 11
1.431050629362832
 21
53.79780929104175
 31
0.0
  0
LINE
  5
144
330
1F
100
AcDbEntity
  8
0
  6
K5LT32778
 62
     7
370
    18
100
AcDbLine
 10
74.65894551638117
 20
99.20349213780194
 30
0.0
 11
73.67413776336896
 21
99.02984396013501
 31
0.0
  0
LINE
  5
145
330
1F
100
AcDbEntity
  8
0
  6
K5LT32778
 62
     7
370
    18
100
AcDbLine
 10
58.90202146818584
 20
96.42512129513106
 30
0.0
 11
57.91721371517363
 21
96.25147311746413
 31
0.0
  0
LINE
  5
146
330
1F
100
AcDbEntity
  8
0
  6
K5LT32778
 62
     7
370
    18
100
AcDbLine
 10
43.14509741999051
 20
93.64675045246018
 30
0.0
 11
42.1602896669783
 21
93.47310227479325
 31
0.0
  0
LINE
  5
147
330
1F
100
AcDbEntity
  8
0
  6
K5LT32778
 62
     7
370
    18
100
AcDbLine
 10
27.38817337179518
 20
90.8683796097893
 30
0.0
 11
26.40336561878297
 21
90.69473143212237
 31
0.0
  0
LINE
  5
148
330
1F
100
AcDbEntity
  8
0
  6
K5LT32778
 62
     7
370
    18
100
AcDbLine
 10
11.63124932359984
 20
88.09000876711842
 30
0.0
 11
10.64644157058763
 21
87.91636058945149
 31
0.0
  0
LINE
  5
149
330
1F
100
AcDbEntity
  8
0
  6
K5LT32778
 62
     7
370
    18
100
AcDbLine
 10
93.19424040724736
 20
86.2249389322775
 30
0.0
 11
92.20943265423516
 21
86.05129075461056
 31
0.0
  0
LINE
  5
14A
330
1F
100
AcDbEntity
  8
0
  6
K5LT32778
 62
     7
370
    18
100
AcDbLine
 10
77.43731635905203
 20
83.44656808960661
 30
0.0
 11
76.45250860603983
 21
83.27291991193968
 31
0.0
  0
LINE
  5
14B
330
1F
100
AcDbEntity
  8
0
  6
K5LT32778
 62
     7
370
    18
100
AcDbLine
 10
61.6803923108567
 20
80.66819724693573
 30
0.0
 11
60.6955845578445
 21
80.4945490692688
 31
0.0
  0
LINE
  5
14C
330
1F
100
AcDbEntity
  8
0
  6
K5LT32778
 62
     7
370
    18
100
AcDbLine
 10
45.92346826266137
 20
77.88982640426485
 30
0.0
 11
44.93866050964917
 21
77.71617822659792
 31
0.0
  0
LINE
  5
14D
330
1F
100
AcDbEntity
  8
0
  6
K5LT32778
 62
     7
370
    18
100
AcDbLine
 10
30.16654421446604
 20
75.11145556159397
 30
0.0
 11
29.18173646145383
 21
74.93780738392704
 31
0.0
  0
LINE
  5
14E
330
1F
100
AcDbEntity
  8
0
  6
K5LT32778
 62
     7
370
    18
100
AcDbLine
 10
14.40962016627071
 20
72.33308471892309
 30
0.0
 11
13.4248124132585
 21
72.15943654125616
 31
0.0
  0
LINE
  5
14F
330
1F
100
AcDbEntity
  8
0
  6
K5LT32778
 62
     7
370
    18
100
AcDbLine
 10
95.97261124991827
 20
70.46801488408217
 30
0.0
 11
94.98780349690607
 21
70.29436670641523
 31
0.0
  0
LINE
  5
150
330
1F
100
AcDbEntity
  8
0
  6
K5LT32778
 62
     7
370
    18
100
AcDbLine
 10
80.21568720172294
 20
67.68964404141128
 30
0.0
 11
79.23087944871074
 21
67.51599586374435
 31
0.0
  0
LINE
  5
151
330
1F
100
AcDbEntity
  8
0
  6
K5LT32778
 62
     7
370
    18
100
AcDbLine
 10
64.45876315352761
 20
64.9112731987404
 30
0.0
 11
63.47395540051541
 21
64.73762502107347
 31
0.0
  0
LINE
  5
152
330
1F
100
AcDbEntity
  8
0
  6
K5LT32778
 62
     7
370
    18
100
AcDbLine
 10
48.70183910533228
 20
62.13290235606952
 30
0.0
 11
47.71703135232008
 21
61.9592541784026
 31
0.0
  0
LINE
  5
153
330
1F
100
AcDbEntity
  8
0
  6
K5LT32778
 62
     7
370
    18
100
AcDbLine
 10
32.94491505713695
 20
59.35453151339865
 30
0.0
 11
31.96010730412474
 21
59.18088333573172
 31
0.0
  0
LINE
  5
154
330
1F
100
AcDbEntity
  8
0
  6
K5LT32778
 62
     7
370
    18
100
AcDbLine
 10
17.18799100894162
 20
56.57616067072777
 30
0.0
 11
16.20318325592941
 21
56.40251249306084
 31
0.0
  0
LINE
  5
155
330
1F
100
AcDbEntity
  8
0
  6
K5LT32778
 62
     7
370
    18
100
AcDbLine
 10
1.43106696074628
 20
53.79778982805689
 30
0.0
 11
0.4462592077340723
 21
53.62414165038996
 31
0.0
  0
LINE
  5
156
330
1F
100
AcDbEntity
  8
0
  6
K5LT32778
 62
     7
370
    18
100
AcDbLine
 10
98.75098209258911
 20
54.71109083588685
 30
0.0
 11
97.7661743395769
 21
54.53744265821992
 31
0.0
  0
LINE
  5
157
330
1F
100
AcDbEntity
  8
0
  6
K5LT32778
 62
     7
370
    18
100
AcDbLine
 10
82.99405804439378
 20
51.93271999321596
 30
0.0
 11
82.00925029138158
 21
51.75907181554903
 31
0.0
  0
LINE
  5
158
330
1F
100
AcDbEntity
  8
0
  6
K5LT32778
 62
     7
370
    18
100
AcDbLine
 10
67.23713399619845
 20
49.15434915054507
 30
0.0
 11
66.25232624318625
 21
48.98070097287814
 31
0.0
  0
LINE
  5
159
330
1F
100
AcDbEntity
  8
0
  6
K5LT32778
 62
     7
370
    18
100
AcDbLine
 10
51.48020994800312
 20
46.37597830787419
 30
0.0
 11
50.49540219499092
 21
46.20233013020727
 31
0.0
  0
LINE
  5
15A
330
1F
100
AcDbEntity
  8
0
  6
K5LT32778
 62
     7
370
    18
100
AcDbLine
 10
35.72328589980779
 20
43.59760746520331
 30
0.0
 11
34.73847814679559
 21
43.42395928753638
 31
0.0
  0
LINE
  5
15B
330
1F
100
AcDbEntity
  8
0
  6
K5LT32778
 62
     7
370
    18
100
AcDbLine
 10
19.96636185161246
 20
40.81923662253243
 30
0.0
 11
18.98155409860025
 21
40.6455884448655
 31
0.0
  0
LINE
  5
15C
330
1F
100
AcDbEntity
  8
0
  6
K5LT32778
 62
     7
370
    18
100
AcDbLine
 10
4.209437803417126
 20
38.04086577986155
 30
0.0
 11
3.224630050404918
 21
37.86721760219462
 31
0.0
  0
LINE
  5
15D
330
1F
100
AcDbEntity
  8
0
  6
K5LT32778
 62
     7
370
    18
100
AcDbLine
 10
85.7724288870647
 20
36.17579594502065
 30
0.0
 11
84.7876211340525
 21
36.00214776735371
 31
0.0
  0
LINE
  5
15E
330
1F
100
AcDbEntity
  8
0
  6
K5LT32778
 62
     7
370
    18
100
AcDbLine
 10
70.01550483886938
 20
33.39742510234976
 30
0.0
 11
69.03069708585717
 21
33.22377692468282
 31
0.0
  0
LINE
  5
15F
330
1F
100
AcDbEntity
  8
0
  6
K5LT32778
 62
     7
370
    18
100
AcDbLine
 10
54.25858079067405
 20
30.61905425967887
 30
0.0
 11
53.27377303766184
 21
30.44540608201194
 31
0.0
  0
LINE
  5
160
330
1F
100
AcDbEntity
  8
0
  6
K5LT32778
 62
     7
370
    18
100
AcDbLine
 10
38.50165674247872
 20
27.84068341700799
 30
0.0
 11
37.51684898946651
 21
27.66703523934106
 31
0.0
  0
LINE
  5
161
330
1F
100
AcDbEntity
  8
0
  6
K5LT32778
 62
     7
370
    18
100
AcDbLine
 10
22.74473269428339
 20
25.06231257433711
 30
0.0
 11
21.75992494127118
 21
24.88866439667018
 31
0.0
  0
LINE
  5
162
330
1F
100
AcDbEntity
  8
0
  6
K5LT32778
 62
     7
370
    18
100
AcDbLine
 10
6.987808646088055
 20
22.28394173166623
 30
0.0
 11
6.003000893075847
 21
22.1102935539993
 31
0.0
  0
LINE
  5
163
330
1F
100
AcDbEntity
  8
0
  6
K5LT32778
 62
     7
370
    18
100
AcDbLine
 10
88.55079972973556
 20
20.4188718968253
 30
0.0
 11
87.56599197672335
 21
20.24522371915837
 31
0.0
  0
LINE
  5
164
330
1F
100
AcDbEntity
  8
0
  6
K5LT32778
 62
     7
370
    18
100
AcDbLine
 10
72.79387568154023
 20
17.64050105415442
 30
0.0
 11
71.80906792852802
 21
17.46685287648749
 31
0.0
  0
LINE
  5
165
330
1F
100
AcDbEntity
  8
0
  6
K5LT32778
 62
     7
370
    18
100
AcDbLine
 10
57.0369516333449
 20
14.86213021148354
 30
0.0
 11
56.05214388033269
 21
14.68848203381661
 31
0.0
  0
LINE
  5
166
330
1F
100
AcDbEntity
  8
0
  6
K5LT32778
 62
     7
370
    18
100
AcDbLine
 10
41.28002758514957
 20
12.08375936881266
 30
0.0
 11
40.29521983213736
 21
11.91011119114573
 31
0.0
  0
LINE
  5
167
330
1F
100
AcDbEntity
  8
0
  6
K5LT32778
 62
     7
370
    18
100
AcDbLine
 10
25.52310353695424
 20
9.305388526141778
 30
0.0
 11
24.53829578394203
 21
9.131740348474848
 31
0.0
  0
LINE
  5
168
330
1F
100
AcDbEntity
  8
0
  6
K5LT32778
 62
     7
370
    18
100
AcDbLine
 10
9.766179488758905
 20
6.527017683470898
 30
0.0
 11
8.781371735746696
 21
6.353369505803968
 31
0.0
  0
LINE
  5
169
330
1F
100
AcDbEntity
  8
0
  6
K5LT32778
 62
     7
370
    18
100
AcDbLine
 10
91.32917057240645
 20
4.661947848629976
 30
0.0
 11
90.34436281939425
 21
4.488299670963046
 31
0.0
  0
LINE
  5
16A
330
1F
100
AcDbEntity
  8
0
  6
K5LT32778
 62
     7
370
    18
100
AcDbLine
 10
75.57224652421112
 20
1.883577005959096
 30
0.0
 11
74.58743877119892
 21
1.709928828292166
 31
0.0
  0
LINE
  5
16C
330
1F
100
AcDbEntity
  8
0
  6
K5LT32779
 62
     7
370
    18
100
AcDbLine
 10
93.37485642833796
 20
85.23988148483329
 30
0.0
 11
92.21657540958998
 21
86.05091858552585
 31
0.0
  0
LINE
  5
16D
330
1F
100
AcDbEntity
  8
0
  6
K5LT32779
 62
     7
370
    18
100
AcDbLine
 10
74.83990363155613
 20
98.21819515350107
 30
0.0
 11
73.68162261280814
 21
99.02923225419363
 31
0.0
  0
LINE
  5
16E
330
1F
100
AcDbEntity
  8
0
  6
K5LT32779
 62
     7
370
    18
100
AcDbLine
 10
96.15247862391976
 20
69.48312562960709
 30
0.0
 11
94.99419760517178
 21
70.29416273029965
 31
0.0
  0
LINE
  5
16F
330
1F
100
AcDbEntity
  8
0
  6
K5LT32779
 62
     7
370
    18
100
AcDbLine
 10
77.61752582713792
 20
82.46143929827487
 30
0.0
 11
76.45924480838994
 21
83.27247639896743
 31
0.0
  0
LINE
  5
170
330
1F
100
AcDbEntity
  8
0
  6
K5LT32779
 62
     7
370
    18
100
AcDbLine
 10
59.08257303035609
 20
95.43975296694265
 30
0.0
 11
57.9242920116081
 21
96.25079006763521
 31
0.0
  0
LINE
  5
171
330
1F
100
AcDbEntity
  8
0
  6
K5LT32779
 62
     7
370
    18
100
AcDbLine
 10
98.93010081950162
 20
53.72636977438085
 30
0.0
 11
97.77181980075363
 21
54.53740687507342
 31
0.0
  0
LINE
  5
172
330
1F
100
AcDbEntity
  8
0
  6
K5LT32779
 62
     7
370
    18
100
AcDbLine
 10
80.39514802271978
 20
66.70468344304864
 30
0.0
 11
79.2368670039718
 21
67.5157205437412
 31
0.0
  0
LINE
  5
173
330
1F
100
AcDbEntity
  8
0
  6
K5LT32779
 62
     7
370
    18
100
AcDbLine
 10
61.86019522593794
 20
79.68299711171642
 30
0.0
 11
60.70191420718996
 21
80.49403421240898
 31
0.0
  0
LINE
  5
174
330
1F
100
AcDbEntity
  8
0
  6
K5LT32779
 62
     7
370
    18
100
AcDbLine
 10
43.32524242915611
 20
92.6613107803842
 30
0.0
 11
42.16696141040812
 21
93.47234788107676
 31
0.0
  0
LINE
  5
175
330
1F
100
AcDbEntity
  8
0
  6
K5LT32779
 62
     7
370
    18
100
AcDbLine
 10
83.17277060890376
 20
50.94792731431985
 30
0.0
 11
82.01448959015578
 21
51.75896441501241
 31
0.0
  0
LINE
  5
176
330
1F
100
AcDbEntity
  8
0
  6
K5LT32779
 62
     7
370
    18
100
AcDbLine
 10
64.63781781212192
 20
63.92624098298763
 30
0.0
 11
63.47953679337394
 21
64.7372780836802
 31
0.0
  0
LINE
  5
177
330
1F
100
AcDbEntity
  8
0
  6
K5LT32779
 62
     7
370
    18
100
AcDbLine
 10
46.10286501534009
 20
76.90455465165542
 30
0.0
 11
44.9445839965921
 21
77.71559175234798
 31
0.0
  0
LINE
  5
178
330
1F
100
AcDbEntity
  8
0
  6
K5LT32779
 62
     7
370
    18
100
AcDbLine
 10
27.56791221855824
 20
89.8828683203232
 30
0.0
 11
26.40963119981025
 21
90.69390542101576
 31
0.0
  0
LINE
  5
179
330
1F
100
AcDbEntity
  8
0
  6
K5LT32779
 62
     7
370
    18
100
AcDbLine
 10
85.95039280448559
 20
35.19117145909362
 30
0.0
 11
84.7921117857376
 21
36.00220855978619
 31
0.0
  0
LINE
  5
17A
330
1F
100
AcDbEntity
  8
0
  6
K5LT32779
 62
     7
370
    18
100
AcDbLine
 10
67.41544000770375
 20
48.1694851277614
 30
0.0
 11
66.25715898895577
 21
48.98052222845397
 31
0.0
  0
LINE
  5
17B
330
1F
100
AcDbEntity
  8
0
  6
K5LT32779
 62
     7
370
    18
100
AcDbLine
 10
48.88048721092191
 20
61.14779879642919
 30
0.0
 11
47.72220619217393
 21
61.95883589712175
 31
0.0
  0
LINE
  5
17C
330
1F
100
AcDbEntity
  8
0
  6
K5LT32779
 62
     7
370
    18
100
AcDbLine
 10
30.34553441414007
 20
74.12611246509697
 30
0.0
 11
29.18725339539208
 21
74.93714956578953
 31
0.0
  0
LINE
  5
17D
330
1F
100
AcDbEntity
  8
0
  6
K5LT32779
 62
     7
370
    18
100
AcDbLine
 10
11.81058161735823
 20
87.10442613376475
 30
0.0
 11
10.65230059861024
 21
87.9154632344573
 31
0.0
  0
LINE
  5
17E
330
1F
100
AcDbEntity
  8
0
  6
K5LT32779
 62
     7
370
    18
100
AcDbLine
 10
88.72801500006743
 20
19.4344156038674
 30
0.0
 11
87.56973398131944
 21
20.24545270455997
 31
0.0
  0
LINE
  5
17F
330
1F
100
AcDbEntity
  8
0
  6
K5LT32779
 62
     7
370
    18
100
AcDbLine
 10
70.19306220328559
 20
32.41272927253518
 30
0.0
 11
69.03478118453761
 21
33.22376637322775
 31
0.0
  0
LINE
  5
180
330
1F
100
AcDbEntity
  8
0
  6
K5LT32779
 62
     7
370
    18
100
AcDbLine
 10
51.65810940650375
 20
45.39104294120296
 30
0.0
 11
50.49982838775577
 21
46.20208004189553
 31
0.0
  0
LINE
  5
181
330
1F
100
AcDbEntity
  8
0
  6
K5LT32779
 62
     7
370
    18
100
AcDbLine
 10
33.12315660972192
 20
58.36935660987074
 30
0.0
 11
31.96487559097393
 21
59.18039371056331
 31
0.0
  0
LINE
  5
182
330
1F
100
AcDbEntity
  8
0
  6
K5LT32779
 62
     7
370
    18
100
AcDbLine
 10
14.58820381294008
 20
71.34767027853852
 30
0.0
 11
13.42992279419209
 21
72.15870737923107
 31
0.0
  0
LINE
  5
183
330
1F
100
AcDbEntity
  8
0
  6
K5LT32779
 62
     7
370
    18
100
AcDbLine
 10
91.5056375862514
 20
3.677659475138614
 30
0.0
 11
90.34735656750341
 21
4.488696575831177
 31
0.0
  0
LINE
  5
184
330
1F
100
AcDbEntity
  8
0
  6
K5LT32779
 62
     7
370
    18
100
AcDbLine
 10
72.97068478946956
 20
16.6559731438064
 30
0.0
 11
71.81240377072157
 21
17.46701024449896
 31
0.0
  0
LINE
  5
185
330
1F
100
AcDbEntity
  8
0
  6
K5LT32779
 62
     7
370
    18
100
AcDbLine
 10
54.43573199268772
 20
29.63428681247418
 30
0.0
 11
53.27745097393974
 21
30.44532391316674
 31
0.0
  0
LINE
  5
186
330
1F
100
AcDbEntity
  8
0
  6
K5LT32779
 62
     7
370
    18
100
AcDbLine
 10
35.90077919590588
 20
42.61260048114195
 30
0.0
 11
34.7424981771579
 21
43.42363758183452
 31
0.0
  0
LINE
  5
187
330
1F
100
AcDbEntity
  8
0
  6
K5LT32779
 62
     7
370
    18
100
AcDbLine
 10
17.36582639912404
 20
55.59091414980974
 30
0.0
 11
16.20754538037605
 21
56.40195125050231
 31
0.0
  0
LINE
  5
188
330
1F
100
AcDbEntity
  8
0
  6
K5LT32779
 62
     7
370
    18
100
AcDbLine
 10
75.74830737565354
 20
0.899217015077607
 30
0.0
 11
74.59002635690555
 21
1.71025411577017
 31
0.0
  0
LINE
  5
189
330
1F
100
AcDbEntity
  8
0
  6
K5LT32779
 62
     7
370
    18
100
AcDbLine
 10
57.2133545788717
 20
13.87753068374539
 30
0.0
 11
56.05507356012372
 21
14.68856778443795
 31
0.0
  0
LINE
  5
18A
330
1F
100
AcDbEntity
  8
0
  6
K5LT32779
 62
     7
370
    18
100
AcDbLine
 10
38.67840178208986
 20
26.85584435241317
 30
0.0
 11
37.52012076334188
 21
27.66688145310573
 31
0.0
  0
LINE
  5
18B
330
1F
100
AcDbEntity
  8
0
  6
K5LT32779
 62
     7
370
    18
100
AcDbLine
 10
20.14344898530802
 20
39.83415802108095
 30
0.0
 11
18.98516796656003
 21
40.64519512177352
 31
0.0
  0
LINE
  5
18C
330
1F
100
AcDbEntity
  8
0
  6
K5LT32779
 62
     7
370
    18
100
AcDbLine
 10
1.608496188526182
 20
52.81247168974873
 30
0.0
 11
0.4502151697781922
 21
53.6235087904413
 31
0.0
  0
LINE
  5
18D
330
1F
100
AcDbEntity
  8
0
  6
K5LT32779
 62
     7
370
    18
100
AcDbLine
 10
41.45602436827384
 20
11.09908822368438
 30
0.0
 11
40.29774334952586
 21
11.91012532437694
 31
0.0
  0
LINE
  5
18E
330
1F
100
AcDbEntity
  8
0
  6
K5LT32779
 62
     7
370
    18
100
AcDbLine
 10
22.921071571492
 20
24.07740189235216
 30
0.0
 11
21.76279055274401
 21
24.88843899304472
 31
0.0
  0
LINE
  5
18F
330
1F
100
AcDbEntity
  8
0
  6
K5LT32779
 62
     7
370
    18
100
AcDbLine
 10
4.386118774710159
 20
37.05571556101994
 30
0.0
 11
3.227837755962171
 21
37.8667526617125
 31
0.0
  0
LINE
  5
190
330
1F
100
AcDbEntity
  8
0
  6
K5LT32779
 62
     7
370
    18
100
AcDbLine
 10
25.69869415767597
 20
8.320645763623379
 30
0.0
 11
24.54041313892798
 21
9.131682864315941
 31
0.0
  0
LINE
  5
191
330
1F
100
AcDbEntity
  8
0
  6
K5LT32779
 62
     7
370
    18
100
AcDbLine
 10
7.163741360894125
 20
21.29895943229116
 30
0.0
 11
6.005460342146137
 21
22.10999653298373
 31
0.0
  0
LINE
  5
192
330
1F
100
AcDbEntity
  8
0
  6
K5LT32779
 62
     7
370
    18
100
AcDbLine
 10
9.941363947078111
 20
5.54220330356237
 30
0.0
 11
8.783082928330122
 21
6.353240404254933
 31
0.0
  0
LINE
  5
194
330
1F
100
AcDbEntity
  8
0
  6
K5LT32780
 62
     7
370
    18
100
AcDbLine
 10
81.88030029040776
 20
1.761790994576184
 30
0.0
 11
82.22232043373343
 21
2.701483615362092
 31
0.0
  0
LINE
  5
195
330
1F
100
AcDbEntity
  8
0
  6
K5LT32780
 62
     7
370
    18
100
AcDbLine
 10
87.35262258361847
 20
16.79687292715072
 30
0.0
 11
87.69464272694414
 21
17.73656554793662
 31
0.0
  0
LINE
  5
196
330
1F
100
AcDbEntity
  8
0
  6
K5LT32780
 62
     7
370
    18
100
AcDbLine
 10
92.82494487682916
 20
31.83195485972525
 30
0.0
 11
93.16696502015483
 21
32.77164748051116
 31
0.0
  0
LINE
  5
197
330
1F
100
AcDbEntity
  8
0
  6
K5LT32780
 62
     7
370
    18
100
AcDbLine
 10
98.29726717003987
 20
46.86703679229979
 30
0.0
 11
98.63928731336554
 21
47.80672941308569
 31
0.0
  0
LINE
  5
198
330
1F
100
AcDbEntity
  8
0
  6
K5LT32780
 62
     7
370
    18
100
AcDbLine
 10
66.84521835783325
 20
7.234113287786896
 30
0.0
 11
67.18723850115892
 21
8.173805908572804
 31
0.0
  0
LINE
  5
199
330
1F
100
AcDbEntity
  8
0
  6
K5LT32780
 62
     7
370
    18
100
AcDbLine
 10
72.31754065104394
 20
22.26919522036143
 30
0.0
 11
72.65956079436961
 21
23.20888784114734
 31
0.0
  0
LINE
  5
19A
330
1F
100
AcDbEntity
  8
0
  6
K5LT32780
 62
     7
370
    18
100
AcDbLine
 10
77.78986294425464
 20
37.30427715293597
 30
0.0
 11
78.1318830875803
 21
38.24396977372187
 31
0.0
  0
LINE
  5
19B
330
1F
100
AcDbEntity
  8
0
  6
K5LT32780
 62
     7
370
    18
100
AcDbLine
 10
83.26218523746533
 20
52.3393590855105
 30
0.0
 11
83.604205380791
 21
53.27905170629641
 31
0.0
  0
LINE
  5
19C
330
1F
100
AcDbEntity
  8
0
  6
K5LT32780
 62
     7
370
    18
100
AcDbLine
 10
88.73450753067603
 20
67.37444101808504
 30
0.0
 11
89.0765276740017
 21
68.31413363887094
 31
0.0
  0
LINE
  5
19D
330
1F
100
AcDbEntity
  8
0
  6
K5LT32780
 62
     7
370
    18
100
AcDbLine
 10
94.20682982388674
 20
82.40952295065956
 30
0.0
 11
94.5488499672124
 21
83.34921557144547
 31
0.0
  0
LINE
  5
19E
330
1F
100
AcDbEntity
  8
0
  6
K5LT32780
 62
     7
370
    18
100
AcDbLine
 10
99.67915211709743
 20
97.4446048832341
 30
0.0
 11
100.0
 21
98.32612719658873
 31
0.0
  0
LINE
  5
19F
330
1F
100
AcDbEntity
  8
0
  6
K5LT32780
 62
     7
370
    18
100
AcDbLine
 10
51.8101364252587
 20
12.7064355809976
 30
0.0
 11
52.15215656858437
 21
13.64612820178351
 31
0.0
  0
LINE
  5
1A0
330
1F
100
AcDbEntity
  8
0
  6
K5LT32780
 62
     7
370
    18
100
AcDbLine
 10
57.2824587184694
 20
27.74151751357213
 30
0.0
 11
57.62447886179507
 21
28.68121013435804
 31
0.0
  0
LINE
  5
1A1
330
1F
100
AcDbEntity
  8
0
  6
K5LT32780
 62
     7
370
    18
100
AcDbLine
 10
62.7547810116801
 20
42.77659944614668
 30
0.0
 11
63.09680115500577
 21
43.71629206693258
 31
0.0
  0
LINE
  5
1A2
330
1F
100
AcDbEntity
  8
0
  6
K5LT32780
 62
     7
370
    18
100
AcDbLine
 10
68.2271033048908
 20
57.81168137872121
 30
0.0
 11
68.56912344821647
 21
58.75137399950712
 31
0.0
  0
LINE
  5
1A3
330
1F
100
AcDbEntity
  8
0
  6
K5LT32780
 62
     7
370
    18
100
AcDbLine
 10
73.69942559810151
 20
72.84676331129575
 30
0.0
 11
74.04144574142718
 21
73.78645593208165
 31
0.0
  0
LINE
  5
1A4
330
1F
100
AcDbEntity
  8
0
  6
K5LT32780
 62
     7
370
    18
100
AcDbLine
 10
79.17174789131221
 20
87.88184524387027
 30
0.0
 11
79.51376803463788
 21
88.82153786465618
 31
0.0
  0
LINE
  5
1A5
330
1F
100
AcDbEntity
  8
0
  6
K5LT32780
 62
     7
370
    18
100
AcDbLine
 10
31.30273219947346
 20
3.143675941633767
 30
0.0
 11
31.64475234279913
 21
4.083368562419674
 31
0.0
  0
LINE
  5
1A6
330
1F
100
AcDbEntity
  8
0
  6
K5LT32780
 62
     7
370
    18
100
AcDbLine
 10
36.77505449268416
 20
18.1787578742083
 30
0.0
 11
37.11707463600983
 21
19.11845049499421
 31
0.0
  0
LINE
  5
1A7
330
1F
100
AcDbEntity
  8
0
  6
K5LT32780
 62
     7
370
    18
100
AcDbLine
 10
42.24737678589486
 20
33.21383980678284
 30
0.0
 11
42.58939692922053
 21
34.15353242756874
 31
0.0
  0
LINE
  5
1A8
330
1F
100
AcDbEntity
  8
0
  6
K5LT32780
 62
     7
370
    18
100
AcDbLine
 10
47.71969907910557
 20
48.24892173935737
 30
0.0
 11
48.06171922243124
 21
49.18861436014328
 31
0.0
  0
LINE
  5
1A9
330
1F
100
AcDbEntity
  8
0
  6
K5LT32780
 62
     7
370
    18
100
AcDbLine
 10
53.19202137231627
 20
63.28400367193191
 30
0.0
 11
53.53404151564194
 21
64.22369629271782
 31
0.0
  0
LINE
  5
1AA
330
1F
100
AcDbEntity
  8
0
  6
K5LT32780
 62
     7
370
    18
100
AcDbLine
 10
58.66434366552697
 20
78.31908560450644
 30
0.0
 11
59.00636380885264
 21
79.25877822529235
 31
0.0
  0
LINE
  5
1AB
330
1F
100
AcDbEntity
  8
0
  6
K5LT32780
 62
     7
370
    18
100
AcDbLine
 10
64.13666595873767
 20
93.35416753708097
 30
0.0
 11
64.47868610206334
 21
94.29386015786687
 31
0.0
  0
LINE
  5
1AC
330
1F
100
AcDbEntity
  8
0
  6
K5LT32780
 62
     7
370
    18
100
AcDbLine
 10
16.26765026689893
 20
8.615998234844467
 30
0.0
 11
16.6096704102246
 21
9.555690855630376
 31
0.0
  0
LINE
  5
1AD
330
1F
100
AcDbEntity
  8
0
  6
K5LT32780
 62
     7
370
    18
100
AcDbLine
 10
21.73997256010963
 20
23.651080167419
 30
0.0
 11
22.0819927034353
 21
24.59077278820491
 31
0.0
  0
LINE
  5
1AE
330
1F
100
AcDbEntity
  8
0
  6
K5LT32780
 62
     7
370
    18
100
AcDbLine
 10
27.21229485332033
 20
38.68616209999354
 30
0.0
 11
27.554314996646
 21
39.62585472077944
 31
0.0
  0
LINE
  5
1AF
330
1F
100
AcDbEntity
  8
0
  6
K5LT32780
 62
     7
370
    18
100
AcDbLine
 10
32.68461714653103
 20
53.72124403256807
 30
0.0
 11
33.0266372898567
 21
54.66093665335398
 31
0.0
  0
LINE
  5
1B0
330
1F
100
AcDbEntity
  8
0
  6
K5LT32780
 62
     7
370
    18
100
AcDbLine
 10
38.15693943974173
 20
68.75632596514261
 30
0.0
 11
38.4989595830674
 21
69.69601858592851
 31
0.0
  0
LINE
  5
1B1
330
1F
100
AcDbEntity
  8
0
  6
K5LT32780
 62
     7
370
    18
100
AcDbLine
 10
43.62926173295244
 20
83.79140789771715
 30
0.0
 11
43.97128187627811
 21
84.73110051850306
 31
0.0
  0
LINE
  5
1B2
330
1F
100
AcDbEntity
  8
0
  6
K5LT32780
 62
     7
370
    18
100
AcDbLine
 10
49.10158402616314
 20
98.82648983029168
 30
0.0
 11
49.44360416948881
 21
99.7661824510776
 31
0.0
  0
LINE
  5
1B3
330
1F
100
AcDbEntity
  8
0
  6
K5LT32780
 62
     7
370
    18
100
AcDbLine
 10
1.232568334324391
 20
14.08832052805517
 30
0.0
 11
1.57458847765006
 21
15.02801314884108
 31
0.0
  0
LINE
  5
1B4
330
1F
100
AcDbEntity
  8
0
  6
K5LT32780
 62
     7
370
    18
100
AcDbLine
 10
6.704890627535092
 20
29.12340246062971
 30
0.0
 11
7.046910770860761
 21
30.06309508141562
 31
0.0
  0
LINE
  5
1B5
330
1F
100
AcDbEntity
  8
0
  6
K5LT32780
 62
     7
370
    18
100
AcDbLine
 10
12.17721292074579
 20
44.15848439320425
 30
0.0
 11
12.51923306407146
 21
45.09817701399015
 31
0.0
  0
LINE
  5
1B6
330
1F
100
AcDbEntity
  8
0
  6
K5LT32780
 62
     7
370
    18
100
AcDbLine
 10
17.64953521395649
 20
59.19356632577878
 30
0.0
 11
17.99155535728216
 21
60.13325894656468
 31
0.0
  0
LINE
  5
1B7
330
1F
100
AcDbEntity
  8
0
  6
K5LT32780
 62
     7
370
    18
100
AcDbLine
 10
23.1218575071672
 20
74.2286482583533
 30
0.0
 11
23.46387765049287
 21
75.16834087913921
 31
0.0
  0
LINE
  5
1B8
330
1F
100
AcDbEntity
  8
0
  6
K5LT32780
 62
     7
370
    18
100
AcDbLine
 10
28.5941798003779
 20
89.26373019092784
 30
0.0
 11
28.93619994370357
 21
90.20342281171375
 31
0.0
  0
LINE
  5
1B9
330
1F
100
AcDbEntity
  8
0
  6
K5LT32780
 62
     7
370
    18
100
AcDbLine
 10
2.614453281381961
 20
64.66588861898948
 30
0.0
 11
2.95647342470763
 21
65.60558123977539
 31
0.0
  0
LINE
  5
1BA
330
1F
100
AcDbEntity
  8
0
  6
K5LT32780
 62
     7
370
    18
100
AcDbLine
 10
8.08677557459266
 20
79.70097055156401
 30
0.0
 11
8.42879571791833
 21
80.64066317234992
 31
0.0
  0
LINE
  5
1BB
330
1F
100
AcDbEntity
  8
0
  6
K5LT32780
 62
     7
370
    18
100
AcDbLine
 10
13.55909786780336
 20
94.73605248413855
 30
0.0
 11
13.90111801112903
 21
95.67574510492446
 31
0.0
  0
LINE
  5
1BD
330
1F
100
AcDbEntity
  8
0
  6
K5LT32781
 62
     7
370
    18
100
AcDbLine
 10
100.0
 20
98.3919803260714
 30
0.0
 11
99.08146031363188
 21
98.72630143090163
 31
0.0
  0
LINE
  5
1BE
330
1F
100
AcDbEntity
  8
0
  6
K5LT32781
 62
     7
370
    18
100
AcDbLine
 10
94.54883064120698
 20
83.34919935500147
 30
0.0
 11
93.60913802042107
 21
83.69121949832714
 31
0.0
  0
LINE
  5
1BF
330
1F
100
AcDbEntity
  8
0
  6
K5LT32781
 62
     7
370
    18
100
AcDbLine
 10
79.51374870863245
 20
88.82152164821218
 30
0.0
 11
78.57405608784654
 21
89.16354179153785
 31
0.0
  0
LINE
  5
1C0
330
1F
100
AcDbEntity
  8
0
  6
K5LT32781
 62
     7
370
    18
100
AcDbLine
 10
64.47866677605792
 20
94.29384394142288
 30
0.0
 11
63.53897415527202
 21
94.63586408474855
 31
0.0
  0
LINE
  5
1C1
330
1F
100
AcDbEntity
  8
0
  6
K5LT32781
 62
     7
370
    18
100
AcDbLine
 10
49.44358484348338
 20
99.76616623463359
 30
0.0
 11
48.80113185323299
 21
100.0
 31
0.0
  0
LINE
  5
1C2
330
1F
100
AcDbEntity
  8
0
  6
K5LT32781
 62
     7
370
    18
100
AcDbLine
 10
89.0765083479963
 20
68.31411742242692
 30
0.0
 11
88.13681572721039
 21
68.65613756575259
 31
0.0
  0
LINE
  5
1C3
330
1F
100
AcDbEntity
  8
0
  6
K5LT32781
 62
     7
370
    18
100
AcDbLine
 10
74.04142641542177
 20
73.78643971563761
 30
0.0
 11
73.10173379463586
 21
74.12845985896328
 31
0.0
  0
LINE
  5
1C4
330
1F
100
AcDbEntity
  8
0
  6
K5LT32781
 62
     7
370
    18
100
AcDbLine
 10
59.00634448284724
 20
79.25876200884831
 30
0.0
 11
58.06665186206133
 21
79.60078215217398
 31
0.0
  0
LINE
  5
1C5
330
1F
100
AcDbEntity
  8
0
  6
K5LT32781
 62
     7
370
    18
100
AcDbLine
 10
43.97126255027271
 20
84.73108430205902
 30
0.0
 11
43.0315699294868
 21
85.07310444538469
 31
0.0
  0
LINE
  5
1C6
330
1F
100
AcDbEntity
  8
0
  6
K5LT32781
 62
     7
370
    18
100
AcDbLine
 10
28.93618061769817
 20
90.20340659526971
 30
0.0
 11
27.99648799691226
 21
90.54542673859538
 31
0.0
  0
LINE
  5
1C7
330
1F
100
AcDbEntity
  8
0
  6
K5LT32781
 62
     7
370
    18
100
AcDbLine
 10
13.90109868512363
 20
95.67572888848042
 30
0.0
 11
12.96140606433772
 21
96.01774903180609
 31
0.0
  0
LINE
  5
1C8
330
1F
100
AcDbEntity
  8
0
  6
K5LT32781
 62
     7
370
    18
100
AcDbLine
 10
98.63926798736009
 20
47.80671319664168
 30
0.0
 11
97.69957536657418
 21
48.14873333996735
 31
0.0
  0
LINE
  5
1C9
330
1F
100
AcDbEntity
  8
0
  6
K5LT32781
 62
     7
370
    18
100
AcDbLine
 10
83.60418605478556
 20
53.27903548985238
 30
0.0
 11
82.66449343399965
 21
53.62105563317805
 31
0.0
  0
LINE
  5
1CA
330
1F
100
AcDbEntity
  8
0
  6
K5LT32781
 62
     7
370
    18
100
AcDbLine
 10
68.56910412221103
 20
58.75135778306309
 30
0.0
 11
67.62941150142512
 21
59.09337792638875
 31
0.0
  0
LINE
  5
1CB
330
1F
100
AcDbEntity
  8
0
  6
K5LT32781
 62
     7
370
    18
100
AcDbLine
 10
53.5340221896365
 20
64.22368007627378
 30
0.0
 11
52.5943295688506
 21
64.56570021959945
 31
0.0
  0
LINE
  5
1CC
330
1F
100
AcDbEntity
  8
0
  6
K5LT32781
 62
     7
370
    18
100
AcDbLine
 10
38.49894025706197
 20
69.69600236948449
 30
0.0
 11
37.55924763627606
 21
70.03802251281016
 31
0.0
  0
LINE
  5
1CD
330
1F
100
AcDbEntity
  8
0
  6
K5LT32781
 62
     7
370
    18
100
AcDbLine
 10
23.46385832448743
 20
75.1683246626952
 30
0.0
 11
22.52416570370152
 21
75.51034480602087
 31
0.0
  0
LINE
  5
1CE
330
1F
100
AcDbEntity
  8
0
  6
K5LT32781
 62
     7
370
    18
100
AcDbLine
 10
8.428776391912898
 20
80.6406469559059
 30
0.0
 11
7.48908377112699
 21
80.98266709923156
 31
0.0
  0
LINE
  5
1CF
330
1F
100
AcDbEntity
  8
0
  6
K5LT32781
 62
     7
370
    18
100
AcDbLine
 10
93.16694569414938
 20
32.77163126406715
 30
0.0
 11
92.22725307336347
 21
33.11365140739282
 31
0.0
  0
LINE
  5
1D0
330
1F
100
AcDbEntity
  8
0
  6
K5LT32781
 62
     7
370
    18
100
AcDbLine
 10
78.13186376157485
 20
38.24395355727786
 30
0.0
 11
77.19217114078894
 21
38.58597370060352
 31
0.0
  0
LINE
  5
1D1
330
1F
100
AcDbEntity
  8
0
  6
K5LT32781
 62
     7
370
    18
100
AcDbLine
 10
63.09678182900032
 20
43.71627585048856
 30
0.0
 11
62.15708920821442
 21
44.05829599381423
 31
0.0
  0
LINE
  5
1D2
330
1F
100
AcDbEntity
  8
0
  6
K5LT32781
 62
     7
370
    18
100
AcDbLine
 10
48.06169989642579
 20
49.18859814369926
 30
0.0
 11
47.12200727563989
 21
49.53061828702493
 31
0.0
  0
LINE
  5
1D3
330
1F
100
AcDbEntity
  8
0
  6
K5LT32781
 62
     7
370
    18
100
AcDbLine
 10
33.02661796385127
 20
54.66092043690996
 30
0.0
 11
32.08692534306536
 21
55.00294058023563
 31
0.0
  0
LINE
  5
1D4
330
1F
100
AcDbEntity
  8
0
  6
K5LT32781
 62
     7
370
    18
100
AcDbLine
 10
17.99153603127673
 20
60.13324273012067
 30
0.0
 11
17.05184341049082
 21
60.47526287344634
 31
0.0
  0
LINE
  5
1D5
330
1F
100
AcDbEntity
  8
0
  6
K5LT32781
 62
     7
370
    18
100
AcDbLine
 10
2.956454098702194
 20
65.60556502333137
 30
0.0
 11
2.016761477916285
 21
65.94758516665703
 31
0.0
  0
LINE
  5
1D6
330
1F
100
AcDbEntity
  8
0
  6
K5LT32781
 62
     7
370
    18
100
AcDbLine
 10
87.69462340093868
 20
17.73654933149262
 30
0.0
 11
86.75493078015278
 21
18.07856947481829
 31
0.0
  0
LINE
  5
1D7
330
1F
100
AcDbEntity
  8
0
  6
K5LT32781
 62
     7
370
    18
100
AcDbLine
 10
72.65954146836415
 20
23.20887162470332
 30
0.0
 11
71.71984884757825
 21
23.55089176802899
 31
0.0
  0
LINE
  5
1D8
330
1F
100
AcDbEntity
  8
0
  6
K5LT32781
 62
     7
370
    18
100
AcDbLine
 10
57.62445953578962
 20
28.68119391791402
 30
0.0
 11
56.68476691500371
 21
29.02321406123969
 31
0.0
  0
LINE
  5
1D9
330
1F
100
AcDbEntity
  8
0
  6
K5LT32781
 62
     7
370
    18
100
AcDbLine
 10
42.58937760321508
 20
34.15351621112472
 30
0.0
 11
41.64968498242918
 21
34.49553635445039
 31
0.0
  0
LINE
  5
1DA
330
1F
100
AcDbEntity
  8
0
  6
K5LT32781
 62
     7
370
    18
100
AcDbLine
 10
27.55429567064055
 20
39.62583850433543
 30
0.0
 11
26.61460304985464
 21
39.9678586476611
 31
0.0
  0
LINE
  5
1DB
330
1F
100
AcDbEntity
  8
0
  6
K5LT32781
 62
     7
370
    18
100
AcDbLine
 10
12.51921373806601
 20
45.09816079754613
 30
0.0
 11
11.5795211172801
 21
45.4401809408718
 31
0.0
  0
LINE
  5
1DC
330
1F
100
AcDbEntity
  8
0
  6
K5LT32781
 62
     7
370
    18
100
AcDbLine
 10
82.22230110772799
 20
2.701467398918072
 30
0.0
 11
81.28260848694208
 21
3.043487542243741
 31
0.0
  0
LINE
  5
1DD
330
1F
100
AcDbEntity
  8
0
  6
K5LT32781
 62
     7
370
    18
100
AcDbLine
 10
67.18721917515346
 20
8.173789692128773
 30
0.0
 11
66.24752655436755
 21
8.515809835454442
 31
0.0
  0
LINE
  5
1DE
330
1F
100
AcDbEntity
  8
0
  6
K5LT32781
 62
     7
370
    18
100
AcDbLine
 10
52.15213724257893
 20
13.64611198533948
 30
0.0
 11
51.21244462179303
 21
13.98813212866514
 31
0.0
  0
LINE
  5
1DF
330
1F
100
AcDbEntity
  8
0
  6
K5LT32781
 62
     7
370
    18
100
AcDbLine
 10
37.1170553100044
 20
19.11843427855018
 30
0.0
 11
36.1773626892185
 21
19.46045442187584
 31
0.0
  0
LINE
  5
1E0
330
1F
100
AcDbEntity
  8
0
  6
K5LT32781
 62
     7
370
    18
100
AcDbLine
 10
22.08197337742987
 20
24.59075657176088
 30
0.0
 11
21.14228075664396
 21
24.93277671508655
 31
0.0
  0
LINE
  5
1E1
330
1F
100
AcDbEntity
  8
0
  6
K5LT32781
 62
     7
370
    18
100
AcDbLine
 10
7.046891444855333
 20
30.06307886497158
 30
0.0
 11
6.107198824069425
 21
30.40509900829725
 31
0.0
  0
LINE
  5
1E2
330
1F
100
AcDbEntity
  8
0
  6
K5LT32781
 62
     7
370
    18
100
AcDbLine
 10
31.64473301679369
 20
4.083352345975642
 30
0.0
 11
30.70504039600778
 21
4.42537248930131
 31
0.0
  0
LINE
  5
1E3
330
1F
100
AcDbEntity
  8
0
  6
K5LT32781
 62
     7
370
    18
100
AcDbLine
 10
16.60965108421916
 20
9.555674639186343
 30
0.0
 11
15.66995846343325
 21
9.897694782512012
 31
0.0
  0
LINE
  5
1E4
330
1F
100
AcDbEntity
  8
0
  6
K5LT32781
 62
     7
370
    18
100
AcDbLine
 10
1.574569151644623
 20
15.02799693239704
 30
0.0
 11
0.6348765308587144
 21
15.37001707572271
 31
0.0
  0
LINE
  5
1E6
330
1F
100
AcDbEntity
  8
0
  6
K5LT32782
 62
     7
370
    18
100
AcDbLine
 10
99.68465316194582
 20
97.44040073872581
 30
0.0
 11
99.08707092533503
 21
98.72191998071125
 31
0.0
  0
LINE
  5
1E7
330
1F
100
AcDbEntity
  8
0
  6
K5LT32782
 62
     7
370
    18
100
AcDbLine
 10
94.21176661782233
 20
82.40583878907925
 30
0.0
 11
93.61418438121154
 21
83.68735803106469
 31
0.0
  0
LINE
  5
1E8
330
1F
100
AcDbEntity
  8
0
  6
K5LT32782
 62
     7
370
    18
100
AcDbLine
 10
98.30146301780314
 20
46.86425153785435
 30
0.0
 11
97.70388078119235
 21
48.14577077983978
 31
0.0
  0
LINE
  5
1E9
330
1F
100
AcDbEntity
  8
0
  6
K5LT32782
 62
     7
370
    18
100
AcDbLine
 10
88.73887987217853
 20
67.37127727159438
 30
0.0
 11
88.14129763556774
 21
68.65279651357982
 31
0.0
  0
LINE
  5
1EA
330
1F
100
AcDbEntity
  8
0
  6
K5LT32782
 62
     7
370
    18
100
AcDbLine
 10
79.17629672655391
 20
87.87830300533442
 30
0.0
 11
78.57871448994312
 21
89.15982224731985
 31
0.0
  0
LINE
  5
1EB
330
1F
100
AcDbEntity
  8
0
  6
K5LT32782
 62
     7
370
    18
100
AcDbLine
 10
92.82857647367939
 20
31.82968958820832
 30
0.0
 11
92.2309942370686
 21
33.11120883019375
 31
0.0
  0
LINE
  5
1EC
330
1F
100
AcDbEntity
  8
0
  6
K5LT32782
 62
     7
370
    18
100
AcDbLine
 10
83.2659933280548
 20
52.33671532194836
 30
0.0
 11
82.66841109144401
 21
53.61823456393379
 31
0.0
  0
LINE
  5
1ED
330
1F
100
AcDbEntity
  8
0
  6
K5LT32782
 62
     7
370
    18
100
AcDbLine
 10
73.7034101824302
 20
72.8437410556884
 30
0.0
 11
73.10582794581941
 21
74.12526029767383
 31
0.0
  0
LINE
  5
1EE
330
1F
100
AcDbEntity
  8
0
  6
K5LT32782
 62
     7
370
    18
100
AcDbLine
 10
64.1408270368056
 20
93.35076678942843
 30
0.0
 11
63.54324480019481
 21
94.63228603141387
 31
0.0
  0
LINE
  5
1EF
330
1F
100
AcDbEntity
  8
0
  6
K5LT32782
 62
     7
370
    18
100
AcDbLine
 10
87.35568992955565
 20
16.7951276385623
 30
0.0
 11
86.75810769294486
 21
18.07664688054773
 31
0.0
  0
LINE
  5
1F0
330
1F
100
AcDbEntity
  8
0
  6
K5LT32782
 62
     7
370
    18
100
AcDbLine
 10
77.79310678393105
 20
37.30215337230234
 30
0.0
 11
77.19552454732026
 21
38.58367261428777
 31
0.0
  0
LINE
  5
1F1
330
1F
100
AcDbEntity
  8
0
  6
K5LT32782
 62
     7
370
    18
100
AcDbLine
 10
68.23052363830644
 20
57.80917910604238
 30
0.0
 11
67.63294140169565
 21
59.09069834802781
 31
0.0
  0
LINE
  5
1F2
330
1F
100
AcDbEntity
  8
0
  6
K5LT32782
 62
     7
370
    18
100
AcDbLine
 10
58.66794049268183
 20
78.31620483978242
 30
0.0
 11
58.07035825607103
 21
79.59772408176785
 31
0.0
  0
LINE
  5
1F3
330
1F
100
AcDbEntity
  8
0
  6
K5LT32782
 62
     7
370
    18
100
AcDbLine
 10
49.10535734705722
 20
98.82323057352245
 30
0.0
 11
48.55662075160807
 21
100.0
 31
0.0
  0
LINE
  5
1F4
330
1F
100
AcDbEntity
  8
0
  6
K5LT32782
 62
     7
370
    18
100
AcDbLine
 10
81.88280338543194
 20
1.760565688916274
 30
0.0
 11
81.28522114882115
 21
3.042084930901705
 31
0.0
  0
LINE
  5
1F5
330
1F
100
AcDbEntity
  8
0
  6
K5LT32782
 62
     7
370
    18
100
AcDbLine
 10
72.32022023980734
 20
22.26759142265631
 30
0.0
 11
71.72263800319655
 21
23.54911066464174
 31
0.0
  0
LINE
  5
1F6
330
1F
100
AcDbEntity
  8
0
  6
K5LT32782
 62
     7
370
    18
100
AcDbLine
 10
62.75763709418274
 20
42.77461715639634
 30
0.0
 11
62.16005485757194
 21
44.05613639838177
 31
0.0
  0
LINE
  5
1F7
330
1F
100
AcDbEntity
  8
0
  6
K5LT32782
 62
     7
370
    18
100
AcDbLine
 10
53.19505394855813
 20
63.28164289013637
 30
0.0
 11
52.59747171194734
 21
64.5631621321218
 31
0.0
  0
LINE
  5
1F8
330
1F
100
AcDbEntity
  8
0
  6
K5LT32782
 62
     7
370
    18
100
AcDbLine
 10
43.63247080293353
 20
83.7886686238764
 30
0.0
 11
43.03488856632273
 21
85.07018786586184
 31
0.0
  0
LINE
  5
1F9
330
1F
100
AcDbEntity
  8
0
  6
K5LT32782
 62
     7
370
    18
100
AcDbLine
 10
66.84733389720368
 20
7.233029040849047
 30
0.0
 11
66.24975166059289
 21
8.514548282834479
 31
0.0
  0
LINE
  5
1FA
330
1F
100
AcDbEntity
  8
0
  6
K5LT32782
 62
     7
370
    18
100
AcDbLine
 10
57.28475075157908
 20
27.74005477458908
 30
0.0
 11
56.68716851496828
 21
29.02157401657451
 31
0.0
  0
LINE
  5
1FB
330
1F
100
AcDbEntity
  8
0
  6
K5LT32782
 62
     7
370
    18
100
AcDbLine
 10
47.72216760595447
 20
48.24708050832911
 30
0.0
 11
47.12458536934368
 21
49.52859975031454
 31
0.0
  0
LINE
  5
1FC
330
1F
100
AcDbEntity
  8
0
  6
K5LT32782
 62
     7
370
    18
100
AcDbLine
 10
38.15958446032987
 20
68.75410624206914
 30
0.0
 11
37.56200222371907
 21
70.03562548405458
 31
0.0
  0
LINE
  5
1FD
330
1F
100
AcDbEntity
  8
0
  6
K5LT32782
 62
     7
370
    18
100
AcDbLine
 10
28.59700131470526
 20
89.26113197580918
 30
0.0
 11
27.99941907809447
 21
90.54265121779461
 31
0.0
  0
LINE
  5
1FE
330
1F
100
AcDbEntity
  8
0
  6
K5LT32782
 62
     7
370
    18
100
AcDbLine
 10
51.81186440897543
 20
12.70549239278183
 30
0.0
 11
51.21428217236463
 21
13.98701163476726
 31
0.0
  0
LINE
  5
1FF
330
1F
100
AcDbEntity
  8
0
  6
K5LT32782
 62
     7
370
    18
100
AcDbLine
 10
42.24928126335082
 20
33.21251812652186
 30
0.0
 11
41.65169902674003
 21
34.49403736850729
 31
0.0
  0
LINE
  5
200
330
1F
100
AcDbEntity
  8
0
  6
K5LT32782
 62
     7
370
    18
100
AcDbLine
 10
32.68669811772622
 20
53.71954386026189
 30
0.0
 11
32.08911588111542
 21
55.00106310224732
 31
0.0
  0
LINE
  5
201
330
1F
100
AcDbEntity
  8
0
  6
K5LT32782
 62
     7
370
    18
100
AcDbLine
 10
23.12411497210161
 20
74.22656959400193
 30
0.0
 11
22.52653273549081
 21
75.50808883598737
 31
0.0
  0
LINE
  5
202
330
1F
100
AcDbEntity
  8
0
  6
K5LT32782
 62
     7
370
    18
100
AcDbLine
 10
13.561531826477
 20
94.73359532774197
 30
0.0
 11
12.96394958986621
 21
96.0151145697274
 31
0.0
  0
LINE
  5
203
330
1F
100
AcDbEntity
  8
0
  6
K5LT32782
 62
     7
370
    18
100
AcDbLine
 10
36.77639492074718
 20
18.1779557447146
 30
0.0
 11
36.17881268413638
 21
19.45947498670003
 31
0.0
  0
LINE
  5
204
330
1F
100
AcDbEntity
  8
0
  6
K5LT32782
 62
     7
370
    18
100
AcDbLine
 10
27.21381177512257
 20
38.68498147845464
 30
0.0
 11
26.61622953851178
 21
39.96650072044007
 31
0.0
  0
LINE
  5
205
330
1F
100
AcDbEntity
  8
0
  6
K5LT32782
 62
     7
370
    18
100
AcDbLine
 10
17.65122862949797
 20
59.19200721219467
 30
0.0
 11
17.05364639288718
 21
60.4735264541801
 31
0.0
  0
LINE
  5
206
330
1F
100
AcDbEntity
  8
0
  6
K5LT32782
 62
     7
370
    18
100
AcDbLine
 10
8.088645483873368
 20
79.6990329459347
 30
0.0
 11
7.491063247262572
 21
80.98055218792014
 31
0.0
  0
LINE
  5
207
330
1F
100
AcDbEntity
  8
0
  6
K5LT32782
 62
     7
370
    18
100
AcDbLine
 10
31.30350857814353
 20
3.14339336290734
 30
0.0
 11
30.70592634153274
 21
4.424912604892771
 31
0.0
  0
LINE
  5
208
330
1F
100
AcDbEntity
  8
0
  6
K5LT32782
 62
     7
370
    18
100
AcDbLine
 10
21.74092543251893
 20
23.65041909664738
 30
0.0
 11
21.14334319590813
 21
24.93193833863281
 31
0.0
  0
LINE
  5
209
330
1F
100
AcDbEntity
  8
0
  6
K5LT32782
 62
     7
370
    18
100
AcDbLine
 10
12.17834228689433
 20
44.15744483038741
 30
0.0
 11
11.58076005028353
 21
45.43896407237284
 31
0.0
  0
LINE
  5
20A
330
1F
100
AcDbEntity
  8
0
  6
K5LT32782
 62
     7
370
    18
100
AcDbLine
 10
2.615759141269724
 20
64.66447056412744
 30
0.0
 11
2.018176904658928
 21
65.94598980611288
 31
0.0
  0
LINE
  5
20B
330
1F
100
AcDbEntity
  8
0
  6
K5LT32782
 62
     7
370
    18
100
AcDbLine
 10
16.26803908991528
 20
8.615856714840117
 30
0.0
 11
15.67045685330449
 21
9.897375956825549
 31
0.0
  0
LINE
  5
20C
330
1F
100
AcDbEntity
  8
0
  6
K5LT32782
 62
     7
370
    18
100
AcDbLine
 10
6.705455944290678
 20
29.12288244858015
 30
0.0
 11
6.107873707679883
 21
30.40440169056559
 31
0.0
  0
LINE
  5
20D
330
1F
100
AcDbEntity
  8
0
  6
K5LT32782
 62
     7
370
    18
100
AcDbLine
 10
1.232569601687032
 20
14.08832006677289
 30
0.0
 11
0.634987365076236
 21
15.36983930875833
 31
0.0
  0
LINE
  5
20F
330
1F
100
AcDbEntity
  8
0
  6
K5LT32783
 62
     7
370
    18
100
AcDbLine
 10
90.4506401880416
 20
1.221356057275546
 30
0.0
 11
90.47678691190488
 21
1.520214478578636
 31
0.0
  0
LINE
  5
210
330
1F
100
AcDbEntity
  8
0
  6
K5LT32783
 62
     7
370
    18
100
AcDbLine
 10
91.34834433938146
 20
11.48216145949609
 30
0.0
 11
91.37449106324473
 21
11.78101988079918
 31
0.0
  0
LINE
  5
211
330
1F
100
AcDbEntity
  8
0
  6
K5LT32783
 62
     7
370
    18
100
AcDbLine
 10
92.24604849072131
 20
21.74296686171663
 30
0.0
 11
92.27219521458458
 21
22.04182528301973
 31
0.0
  0
LINE
  5
212
330
1F
100
AcDbEntity
  8
0
  6
K5LT32783
 62
     7
370
    18
100
AcDbLine
 10
93.14375264206116
 20
32.00377226393718
 30
0.0
 11
93.16989936592444
 21
32.30263068524027
 31
0.0
  0
LINE
  5
213
330
1F
100
AcDbEntity
  8
0
  6
K5LT32783
 62
     7
370
    18
100
AcDbLine
 10
94.04145679340101
 20
42.26457766615772
 30
0.0
 11
94.06760351726429
 21
42.56343608746081
 31
0.0
  0
LINE
  5
214
330
1F
100
AcDbEntity
  8
0
  6
K5LT32783
 62
     7
370
    18
100
AcDbLine
 10
94.93916094474088
 20
52.52538306837826
 30
0.0
 11
94.96530766860415
 21
52.82424148968135
 31
0.0
  0
LINE
  5
215
330
1F
100
AcDbEntity
  8
0
  6
K5LT32783
 62
     7
370
    18
100
AcDbLine
 10
95.83686509608073
 20
62.7861884705988
 30
0.0
 11
95.863011819944
 21
63.08504689190189
 31
0.0
  0
LINE
  5
216
330
1F
100
AcDbEntity
  8
0
  6
K5LT32783
 62
     7
370
    18
100
AcDbLine
 10
96.73456924742058
 20
73.04699387281934
 30
0.0
 11
96.76071597128386
 21
73.34585229412244
 31
0.0
  0
LINE
  5
217
330
1F
100
AcDbEntity
  8
0
  6
K5LT32783
 62
     7
370
    18
100
AcDbLine
 10
97.63227339876045
 20
83.3077992750399
 30
0.0
 11
97.65842012262372
 21
83.60665769634299
 31
0.0
  0
LINE
  5
218
330
1F
100
AcDbEntity
  8
0
  6
K5LT32783
 62
     7
370
    18
100
AcDbLine
 10
98.5299775501003
 20
93.56860467726045
 30
0.0
 11
98.55612427396358
 21
93.86746309856355
 31
0.0
  0
LINE
  5
219
330
1F
100
AcDbEntity
  8
0
  6
K5LT32783
 62
     7
370
    18
100
AcDbLine
 10
81.09878340635775
 20
9.066276371394366
 30
0.0
 11
81.12493013022103
 21
9.365134792697456
 31
0.0
  0
LINE
  5
21A
330
1F
100
AcDbEntity
  8
0
  6
K5LT32783
 62
     7
370
    18
100
AcDbLine
 10
81.9964875576976
 20
19.32708177361491
 30
0.0
 11
82.02263428156088
 21
19.625940194918
 31
0.0
  0
LINE
  5
21B
330
1F
100
AcDbEntity
  8
0
  6
K5LT32783
 62
     7
370
    18
100
AcDbLine
 10
82.89419170903746
 20
29.58788717583545
 30
0.0
 11
82.92033843290073
 21
29.88674559713855
 31
0.0
  0
LINE
  5
21C
330
1F
100
AcDbEntity
  8
0
  6
K5LT32783
 62
     7
370
    18
100
AcDbLine
 10
83.79189586037731
 20
39.848692578056
 30
0.0
 11
83.81804258424059
 21
40.14755099935909
 31
0.0
  0
LINE
  5
21D
330
1F
100
AcDbEntity
  8
0
  6
K5LT32783
 62
     7
370
    18
100
AcDbLine
 10
84.68960001171716
 20
50.10949798027654
 30
0.0
 11
84.71574673558044
 21
50.40835640157963
 31
0.0
  0
LINE
  5
21E
330
1F
100
AcDbEntity
  8
0
  6
K5LT32783
 62
     7
370
    18
100
AcDbLine
 10
85.58730416305701
 20
60.37030338249708
 30
0.0
 11
85.61345088692029
 21
60.66916180380017
 31
0.0
  0
LINE
  5
21F
330
1F
100
AcDbEntity
  8
0
  6
K5LT32783
 62
     7
370
    18
100
AcDbLine
 10
86.48500831439688
 20
70.63110878471763
 30
0.0
 11
86.51115503826016
 21
70.92996720602072
 31
0.0
  0
LINE
  5
220
330
1F
100
AcDbEntity
  8
0
  6
K5LT32783
 62
     7
370
    18
100
AcDbLine
 10
87.38271246573673
 20
80.89191418693818
 30
0.0
 11
87.40885918960001
 21
81.19077260824128
 31
0.0
  0
LINE
  5
221
330
1F
100
AcDbEntity
  8
0
  6
K5LT32783
 62
     7
370
    18
100
AcDbLine
 10
88.28041661707658
 20
91.15271958915872
 30
0.0
 11
88.30656334093986
 21
91.45157801046182
 31
0.0
  0
LINE
  5
222
330
1F
100
AcDbEntity
  8
0
  6
K5LT32783
 62
     7
370
    18
100
AcDbLine
 10
70.84922245774939
 20
6.65039110515914
 30
0.0
 11
70.87536918161267
 21
6.94924952646223
 31
0.0
  0
LINE
  5
223
330
1F
100
AcDbEntity
  8
0
  6
K5LT32783
 62
     7
370
    18
100
AcDbLine
 10
71.74692660908926
 20
16.91119650737969
 30
0.0
 11
71.77307333295253
 21
17.21005492868278
 31
0.0
  0
LINE
  5
224
330
1F
100
AcDbEntity
  8
0
  6
K5LT32783
 62
     7
370
    18
100
AcDbLine
 10
72.64463076042911
 20
27.17200190960023
 30
0.0
 11
72.67077748429239
 21
27.47086033090332
 31
0.0
  0
LINE
  5
225
330
1F
100
AcDbEntity
  8
0
  6
K5LT32783
 62
     7
370
    18
100
AcDbLine
 10
73.54233491176896
 20
37.43280731182077
 30
0.0
 11
73.56848163563224
 21
37.73166573312386
 31
0.0
  0
LINE
  5
226
330
1F
100
AcDbEntity
  8
0
  6
K5LT32783
 62
     7
370
    18
100
AcDbLine
 10
74.44003906310881
 20
47.69361271404131
 30
0.0
 11
74.46618578697209
 21
47.9924711353444
 31
0.0
  0
LINE
  5
227
330
1F
100
AcDbEntity
  8
0
  6
K5LT32783
 62
     7
370
    18
100
AcDbLine
 10
75.33774321444868
 20
57.95441811626186
 30
0.0
 11
75.36388993831196
 21
58.25327653756494
 31
0.0
  0
LINE
  5
228
330
1F
100
AcDbEntity
  8
0
  6
K5LT32783
 62
     7
370
    18
100
AcDbLine
 10
76.23544736578853
 20
68.2152235184824
 30
0.0
 11
76.26159408965181
 21
68.5140819397855
 31
0.0
  0
LINE
  5
229
330
1F
100
AcDbEntity
  8
0
  6
K5LT32783
 62
     7
370
    18
100
AcDbLine
 10
77.13315151712838
 20
78.47602892070296
 30
0.0
 11
77.15929824099166
 21
78.77488734200605
 31
0.0
  0
LINE
  5
22A
330
1F
100
AcDbEntity
  8
0
  6
K5LT32783
 62
     7
370
    18
100
AcDbLine
 10
78.03085566846825
 20
88.7368343229235
 30
0.0
 11
78.05700239233153
 21
89.0356927442266
 31
0.0
  0
LINE
  5
22B
330
1F
100
AcDbEntity
  8
0
  6
K5LT32783
 62
     7
370
    18
100
AcDbLine
 10
78.9285598198081
 20
98.99763972514404
 30
0.0
 11
78.95470654367138
 21
99.29649814644714
 31
0.0
  0
LINE
  5
22C
330
1F
100
AcDbEntity
  8
0
  6
K5LT32783
 62
     7
370
    18
100
AcDbLine
 10
60.59966150914101
 20
4.234505838923885
 30
0.0
 11
60.62580823300429
 21
4.533364260226975
 31
0.0
  0
LINE
  5
22D
330
1F
100
AcDbEntity
  8
0
  6
K5LT32783
 62
     7
370
    18
100
AcDbLine
 10
61.49736566048087
 20
14.49531124114443
 30
0.0
 11
61.52351238434415
 21
14.79416966244752
 31
0.0
  0
LINE
  5
22E
330
1F
100
AcDbEntity
  8
0
  6
K5LT32783
 62
     7
370
    18
100
AcDbLine
 10
62.39506981182073
 20
24.75611664336498
 30
0.0
 11
62.42121653568401
 21
25.05497506466807
 31
0.0
  0
LINE
  5
22F
330
1F
100
AcDbEntity
  8
0
  6
K5LT32783
 62
     7
370
    18
100
AcDbLine
 10
63.29277396316059
 20
35.01692204558552
 30
0.0
 11
63.31892068702387
 21
35.3157804668886
 31
0.0
  0
LINE
  5
230
330
1F
100
AcDbEntity
  8
0
  6
K5LT32783
 62
     7
370
    18
100
AcDbLine
 10
64.19047811450045
 20
45.27772744780606
 30
0.0
 11
64.21662483836373
 21
45.57658586910915
 31
0.0
  0
LINE
  5
231
330
1F
100
AcDbEntity
  8
0
  6
K5LT32783
 62
     7
370
    18
100
AcDbLine
 10
65.0881822658403
 20
55.5385328500266
 30
0.0
 11
65.11432898970358
 21
55.83739127132969
 31
0.0
  0
LINE
  5
232
330
1F
100
AcDbEntity
  8
0
  6
K5LT32783
 62
     7
370
    18
100
AcDbLine
 10
65.98588641718015
 20
65.79933825224714
 30
0.0
 11
66.01203314104343
 21
66.09819667355023
 31
0.0
  0
LINE
  5
233
330
1F
100
AcDbEntity
  8
0
  6
K5LT32783
 62
     7
370
    18
100
AcDbLine
 10
66.88359056852
 20
76.0601436544677
 30
0.0
 11
66.90973729238328
 21
76.35900207577079
 31
0.0
  0
LINE
  5
234
330
1F
100
AcDbEntity
  8
0
  6
K5LT32783
 62
     7
370
    18
100
AcDbLine
 10
67.78129471985986
 20
86.32094905668825
 30
0.0
 11
67.80744144372314
 21
86.61980747799134
 31
0.0
  0
LINE
  5
235
330
1F
100
AcDbEntity
  8
0
  6
K5LT32783
 62
     7
370
    18
100
AcDbLine
 10
68.67899887119971
 20
96.58175445890879
 30
0.0
 11
68.70514559506299
 21
96.88061288021188
 31
0.0
  0
LINE
  5
236
330
1F
100
AcDbEntity
  8
0
  6
K5LT32783
 62
     7
370
    18
100
AcDbLine
 10
50.35010056053265
 20
1.818620572688658
 30
0.0
 11
50.37624728439593
 21
2.117478993991748
 31
0.0
  0
LINE
  5
237
330
1F
100
AcDbEntity
  8
0
  6
K5LT32783
 62
     7
370
    18
100
AcDbLine
 10
51.24780471187251
 20
12.0794259749092
 30
0.0
 11
51.27395143573579
 21
12.37828439621229
 31
0.0
  0
LINE
  5
238
330
1F
100
AcDbEntity
  8
0
  6
K5LT32783
 62
     7
370
    18
100
AcDbLine
 10
52.14550886321237
 20
22.34023137712975
 30
0.0
 11
52.17165558707565
 21
22.63908979843284
 31
0.0
  0
LINE
  5
239
330
1F
100
AcDbEntity
  8
0
  6
K5LT32783
 62
     7
370
    18
100
AcDbLine
 10
53.04321301455223
 20
32.6010367793503
 30
0.0
 11
53.06935973841551
 21
32.89989520065338
 31
0.0
  0
LINE
  5
23A
330
1F
100
AcDbEntity
  8
0
  6
K5LT32783
 62
     7
370
    18
100
AcDbLine
 10
53.94091716589209
 20
42.86184218157084
 30
0.0
 11
53.96706388975537
 21
43.16070060287392
 31
0.0
  0
LINE
  5
23B
330
1F
100
AcDbEntity
  8
0
  6
K5LT32783
 62
     7
370
    18
100
AcDbLine
 10
54.83862131723195
 20
53.12264758379138
 30
0.0
 11
54.86476804109522
 21
53.42150600509446
 31
0.0
  0
LINE
  5
23C
330
1F
100
AcDbEntity
  8
0
  6
K5LT32783
 62
     7
370
    18
100
AcDbLine
 10
55.7363254685718
 20
63.38345298601192
 30
0.0
 11
55.76247219243508
 21
63.68231140731501
 31
0.0
  0
LINE
  5
23D
330
1F
100
AcDbEntity
  8
0
  6
K5LT32783
 62
     7
370
    18
100
AcDbLine
 10
56.63402961991165
 20
73.64425838823247
 30
0.0
 11
56.66017634377493
 21
73.94311680953557
 31
0.0
  0
LINE
  5
23E
330
1F
100
AcDbEntity
  8
0
  6
K5LT32783
 62
     7
370
    18
100
AcDbLine
 10
57.5317337712515
 20
83.90506379045303
 30
0.0
 11
57.55788049511478
 21
84.20392221175612
 31
0.0
  0
LINE
  5
23F
330
1F
100
AcDbEntity
  8
0
  6
K5LT32783
 62
     7
370
    18
100
AcDbLine
 10
58.42943792259135
 20
94.16586919267357
 30
0.0
 11
58.45558464645463
 21
94.46472761397666
 31
0.0
  0
LINE
  5
240
330
1F
100
AcDbEntity
  8
0
  6
K5LT32783
 62
     7
370
    18
100
AcDbLine
 10
40.9982437788488
 20
9.663540886807452
 30
0.0
 11
41.02439050271208
 21
9.962399308110541
 31
0.0
  0
LINE
  5
241
330
1F
100
AcDbEntity
  8
0
  6
K5LT32783
 62
     7
370
    18
100
AcDbLine
 10
41.89594793018866
 20
19.924346289028
 30
0.0
 11
41.92209465405194
 21
20.22320471033109
 31
0.0
  0
LINE
  5
242
330
1F
100
AcDbEntity
  8
0
  6
K5LT32783
 62
     7
370
    18
100
AcDbLine
 10
42.79365208152852
 20
30.18515169124854
 30
0.0
 11
42.8197988053918
 21
30.48401011255163
 31
0.0
  0
LINE
  5
243
330
1F
100
AcDbEntity
  8
0
  6
K5LT32783
 62
     7
370
    18
100
AcDbLine
 10
43.69135623286838
 20
40.44595709346909
 30
0.0
 11
43.71750295673166
 21
40.74481551477218
 31
0.0
  0
LINE
  5
244
330
1F
100
AcDbEntity
  8
0
  6
K5LT32783
 62
     7
370
    18
100
AcDbLine
 10
44.58906038420823
 20
50.70676249568963
 30
0.0
 11
44.61520710807151
 21
51.00562091699272
 31
0.0
  0
LINE
  5
245
330
1F
100
AcDbEntity
  8
0
  6
K5LT32783
 62
     7
370
    18
100
AcDbLine
 10
45.48676453554808
 20
60.96756789791017
 30
0.0
 11
45.51291125941136
 21
61.26642631921326
 31
0.0
  0
LINE
  5
246
330
1F
100
AcDbEntity
  8
0
  6
K5LT32783
 62
     7
370
    18
100
AcDbLine
 10
46.38446868688794
 20
71.22837330013071
 30
0.0
 11
46.41061541075122
 21
71.52723172143381
 31
0.0
  0
LINE
  5
247
330
1F
100
AcDbEntity
  8
0
  6
K5LT32783
 62
     7
370
    18
100
AcDbLine
 10
47.28217283822779
 20
81.48917870235127
 30
0.0
 11
47.30831956209107
 21
81.78803712365436
 31
0.0
  0
LINE
  5
248
330
1F
100
AcDbEntity
  8
0
  6
K5LT32783
 62
     7
370
    18
100
AcDbLine
 10
48.17987698956765
 20
91.74998410457182
 30
0.0
 11
48.20602371343092
 21
92.04884252587492
 31
0.0
  0
LINE
  5
249
330
1F
100
AcDbEntity
  8
0
  6
K5LT32783
 62
     7
370
    18
100
AcDbLine
 10
30.74868283024044
 20
7.247655620572215
 30
0.0
 11
30.77482955410371
 21
7.546514041875305
 31
0.0
  0
LINE
  5
24A
330
1F
100
AcDbEntity
  8
0
  6
K5LT32783
 62
     7
370
    18
100
AcDbLine
 10
31.64638698158029
 20
17.50846102279276
 30
0.0
 11
31.67253370544357
 21
17.80731944409585
 31
0.0
  0
LINE
  5
24B
330
1F
100
AcDbEntity
  8
0
  6
K5LT32783
 62
     7
370
    18
100
AcDbLine
 10
32.54409113292014
 20
27.7692664250133
 30
0.0
 11
32.57023785678342
 21
28.06812484631639
 31
0.0
  0
LINE
  5
24C
330
1F
100
AcDbEntity
  8
0
  6
K5LT32783
 62
     7
370
    18
100
AcDbLine
 10
33.44179528426
 20
38.03007182723385
 30
0.0
 11
33.46794200812328
 21
38.32893024853693
 31
0.0
  0
LINE
  5
24D
330
1F
100
AcDbEntity
  8
0
  6
K5LT32783
 62
     7
370
    18
100
AcDbLine
 10
34.33949943559986
 20
48.29087722945439
 30
0.0
 11
34.36564615946314
 21
48.58973565075748
 31
0.0
  0
LINE
  5
24E
330
1F
100
AcDbEntity
  8
0
  6
K5LT32783
 62
     7
370
    18
100
AcDbLine
 10
35.23720358693972
 20
58.55168263167493
 30
0.0
 11
35.263350310803
 21
58.85054105297802
 31
0.0
  0
LINE
  5
24F
330
1F
100
AcDbEntity
  8
0
  6
K5LT32783
 62
     7
370
    18
100
AcDbLine
 10
36.13490773827958
 20
68.81248803389548
 30
0.0
 11
36.16105446214286
 21
69.11134645519857
 31
0.0
  0
LINE
  5
250
330
1F
100
AcDbEntity
  8
0
  6
K5LT32783
 62
     7
370
    18
100
AcDbLine
 10
37.03261188961943
 20
79.07329343611603
 30
0.0
 11
37.05875861348271
 21
79.37215185741913
 31
0.0
  0
LINE
  5
251
330
1F
100
AcDbEntity
  8
0
  6
K5LT32783
 62
     7
370
    18
100
AcDbLine
 10
37.93031604095928
 20
89.33409883833657
 30
0.0
 11
37.95646276482256
 21
89.63295725963967
 31
0.0
  0
LINE
  5
252
330
1F
100
AcDbEntity
  8
0
  6
K5LT32783
 62
     7
370
    18
100
AcDbLine
 10
38.82802019229914
 20
99.59490424055711
 30
0.0
 11
38.85416691616241
 21
99.89376266186021
 31
0.0
  0
LINE
  5
253
330
1F
100
AcDbEntity
  8
0
  6
K5LT32783
 62
     7
370
    18
100
AcDbLine
 10
20.49912188163207
 20
4.831770354336981
 30
0.0
 11
20.52526860549535
 21
5.130628775640071
 31
0.0
  0
LINE
  5
254
330
1F
100
AcDbEntity
  8
0
  6
K5LT32783
 62
     7
370
    18
100
AcDbLine
 10
21.39682603297193
 20
15.09257575655752
 30
0.0
 11
21.4229727568352
 21
15.39143417786061
 31
0.0
  0
LINE
  5
255
330
1F
100
AcDbEntity
  8
0
  6
K5LT32783
 62
     7
370
    18
100
AcDbLine
 10
22.29453018431178
 20
25.35338115877807
 30
0.0
 11
22.32067690817506
 21
25.65223958008116
 31
0.0
  0
LINE
  5
256
330
1F
100
AcDbEntity
  8
0
  6
K5LT32783
 62
     7
370
    18
100
AcDbLine
 10
23.19223433565164
 20
35.61418656099861
 30
0.0
 11
23.21838105951491
 21
35.9130449823017
 31
0.0
  0
LINE
  5
257
330
1F
100
AcDbEntity
  8
0
  6
K5LT32783
 62
     7
370
    18
100
AcDbLine
 10
24.08993848699149
 20
45.87499196321915
 30
0.0
 11
24.11608521085477
 21
46.17385038452224
 31
0.0
  0
LINE
  5
258
330
1F
100
AcDbEntity
  8
0
  6
K5LT32783
 62
     7
370
    18
100
AcDbLine
 10
24.98764263833135
 20
56.13579736543969
 30
0.0
 11
25.01378936219462
 21
56.43465578674278
 31
0.0
  0
LINE
  5
259
330
1F
100
AcDbEntity
  8
0
  6
K5LT32783
 62
     7
370
    18
100
AcDbLine
 10
25.8853467896712
 20
66.39660276766024
 30
0.0
 11
25.91149351353448
 21
66.69546118896334
 31
0.0
  0
LINE
  5
25A
330
1F
100
AcDbEntity
  8
0
  6
K5LT32783
 62
     7
370
    18
100
AcDbLine
 10
26.78305094101106
 20
76.6574081698808
 30
0.0
 11
26.80919766487433
 21
76.95626659118389
 31
0.0
  0
LINE
  5
25B
330
1F
100
AcDbEntity
  8
0
  6
K5LT32783
 62
     7
370
    18
100
AcDbLine
 10
27.68075509235092
 20
86.91821357210134
 30
0.0
 11
27.70690181621419
 21
87.21707199340443
 31
0.0
  0
LINE
  5
25C
330
1F
100
AcDbEntity
  8
0
  6
K5LT32783
 62
     7
370
    18
100
AcDbLine
 10
28.57845924369078
 20
97.17901897432188
 30
0.0
 11
28.60460596755405
 21
97.47787739562497
 31
0.0
  0
LINE
  5
25D
330
1F
100
AcDbEntity
  8
0
  6
K5LT32783
 62
     7
370
    18
100
AcDbLine
 10
10.24956093302371
 20
2.415885088101744
 30
0.0
 11
10.27570765688698
 21
2.714743509404834
 31
0.0
  0
LINE
  5
25E
330
1F
100
AcDbEntity
  8
0
  6
K5LT32783
 62
     7
370
    18
100
AcDbLine
 10
11.14726508436356
 20
12.67669049032229
 30
0.0
 11
11.17341180822683
 21
12.97554891162538
 31
0.0
  0
LINE
  5
25F
330
1F
100
AcDbEntity
  8
0
  6
K5LT32783
 62
     7
370
    18
100
AcDbLine
 10
12.04496923570342
 20
22.93749589254283
 30
0.0
 11
12.07111595956669
 21
23.23635431384592
 31
0.0
  0
LINE
  5
260
330
1F
100
AcDbEntity
  8
0
  6
K5LT32783
 62
     7
370
    18
100
AcDbLine
 10
12.94267338704327
 20
33.19830129476338
 30
0.0
 11
12.96882011090655
 21
33.49715971606646
 31
0.0
  0
LINE
  5
261
330
1F
100
AcDbEntity
  8
0
  6
K5LT32783
 62
     7
370
    18
100
AcDbLine
 10
13.84037753838313
 20
43.45910669698392
 30
0.0
 11
13.8665242622464
 21
43.757965118287
 31
0.0
  0
LINE
  5
262
330
1F
100
AcDbEntity
  8
0
  6
K5LT32783
 62
     7
370
    18
100
AcDbLine
 10
14.73808168972298
 20
53.71991209920446
 30
0.0
 11
14.76422841358626
 21
54.01877052050755
 31
0.0
  0
LINE
  5
263
330
1F
100
AcDbEntity
  8
0
  6
K5LT32783
 62
     7
370
    18
100
AcDbLine
 10
15.63578584106284
 20
63.980717501425
 30
0.0
 11
15.66193256492611
 21
64.2795759227281
 31
0.0
  0
LINE
  5
264
330
1F
100
AcDbEntity
  8
0
  6
K5LT32783
 62
     7
370
    18
100
AcDbLine
 10
16.5334899924027
 20
74.24152290364556
 30
0.0
 11
16.55963671626597
 21
74.54038132494865
 31
0.0
  0
LINE
  5
265
330
1F
100
AcDbEntity
  8
0
  6
K5LT32783
 62
     7
370
    18
100
AcDbLine
 10
17.43119414374255
 20
84.5023283058661
 30
0.0
 11
17.45734086760583
 21
84.8011867271692
 31
0.0
  0
LINE
  5
266
330
1F
100
AcDbEntity
  8
0
  6
K5LT32783
 62
     7
370
    18
100
AcDbLine
 10
18.32889829508241
 20
94.76313370808664
 30
0.0
 11
18.35504501894568
 21
95.06199212938974
 31
0.0
  0
LINE
  5
267
330
1F
100
AcDbEntity
  8
0
  6
K5LT32783
 62
     7
370
    18
100
AcDbLine
 10
0.8715574274765815
 20
9.961946980917455
 30
0.0
 11
0.8977041513398564
 21
10.26080540222054
 31
0.0
  0
LINE
  5
268
330
1F
100
AcDbEntity
  8
0
  6
K5LT32783
 62
     7
370
    18
100
AcDbLine
 10
1.769261578816438
 20
20.222752383138
 30
0.0
 11
1.795408302679713
 21
20.52161080444109
 31
0.0
  0
LINE
  5
269
330
1F
100
AcDbEntity
  8
0
  6
K5LT32783
 62
     7
370
    18
100
AcDbLine
 10
2.666965730156294
 20
30.48355778535855
 30
0.0
 11
2.693112454019569
 21
30.78241620666164
 31
0.0
  0
LINE
  5
26A
330
1F
100
AcDbEntity
  8
0
  6
K5LT32783
 62
     7
370
    18
100
AcDbLine
 10
3.564669881496151
 20
40.7443631875791
 30
0.0
 11
3.590816605359425
 21
41.04322160888218
 31
0.0
  0
LINE
  5
26B
330
1F
100
AcDbEntity
  8
0
  6
K5LT32783
 62
     7
370
    18
100
AcDbLine
 10
4.462374032836007
 20
51.00516858979964
 30
0.0
 11
4.488520756699282
 21
51.30402701110273
 31
0.0
  0
LINE
  5
26C
330
1F
100
AcDbEntity
  8
0
  6
K5LT32783
 62
     7
370
    18
100
AcDbLine
 10
5.360078184175864
 20
61.26597399202018
 30
0.0
 11
5.386224908039138
 21
61.56483241332327
 31
0.0
  0
LINE
  5
26D
330
1F
100
AcDbEntity
  8
0
  6
K5LT32783
 62
     7
370
    18
100
AcDbLine
 10
6.25778233551572
 20
71.52677939424072
 30
0.0
 11
6.283929059378995
 21
71.82563781554381
 31
0.0
  0
LINE
  5
26E
330
1F
100
AcDbEntity
  8
0
  6
K5LT32783
 62
     7
370
    18
100
AcDbLine
 10
7.155486486855576
 20
81.78758479646127
 30
0.0
 11
7.181633210718851
 21
82.08644321776437
 31
0.0
  0
LINE
  5
26F
330
1F
100
AcDbEntity
  8
0
  6
K5LT32783
 62
     7
370
    18
100
AcDbLine
 10
8.053190638195431
 20
92.04839019868182
 30
0.0
 11
8.079337362058707
 21
92.34724861998491
 31
0.0
  0
LINE
  5
271
330
1F
100
AcDbEntity
  8
0
  6
K5LT32784
 62
     7
370
    18
100
AcDbLine
 10
97.70219586956988
 20
8.395900623310661
 30
0.0
 11
97.82898135313009
 21
8.667792970225687
 31
0.0
  0
LINE
  5
272
330
1F
100
AcDbEntity
  8
0
  6
K5LT32784
 62
     7
370
    18
100
AcDbLine
 10
90.9307800665529
 20
5.705560487855436
 30
0.0
 11
91.05756555011311
 21
5.977452834770462
 31
0.0
  0
LINE
  5
273
330
1F
100
AcDbEntity
  8
0
  6
K5LT32784
 62
     7
370
    18
100
AcDbLine
 10
95.2837481675201
 20
15.04053070513696
 30
0.0
 11
95.41053365108031
 21
15.31242305205199
 31
0.0
  0
LINE
  5
274
330
1F
100
AcDbEntity
  8
0
  6
K5LT32784
 62
     7
370
    18
100
AcDbLine
 10
99.6367162684873
 20
24.37550092241849
 30
0.0
 11
99.76350175204752
 21
24.64739326933351
 31
0.0
  0
LINE
  5
275
330
1F
100
AcDbEntity
  8
0
  6
K5LT32784
 62
     7
370
    18
100
AcDbLine
 10
84.15936426353588
 20
3.015220352400152
 30
0.0
 11
84.28614974709609
 21
3.287112699315178
 31
0.0
  0
LINE
  5
276
330
1F
100
AcDbEntity
  8
0
  6
K5LT32784
 62
     7
370
    18
100
AcDbLine
 10
88.51233236450308
 20
12.35019056968168
 30
0.0
 11
88.6391178480633
 21
12.62208291659671
 31
0.0
  0
LINE
  5
277
330
1F
100
AcDbEntity
  8
0
  6
K5LT32784
 62
     7
370
    18
100
AcDbLine
 10
92.86530046547028
 20
21.68516078696321
 30
0.0
 11
92.9920859490305
 21
21.95705313387823
 31
0.0
  0
LINE
  5
278
330
1F
100
AcDbEntity
  8
0
  6
K5LT32784
 62
     7
370
    18
100
AcDbLine
 10
97.2182685664375
 20
31.02013100424473
 30
0.0
 11
97.34505404999771
 21
31.29202335115976
 31
0.0
  0
LINE
  5
279
330
1F
100
AcDbEntity
  8
0
  6
K5LT32784
 62
     7
370
    18
100
AcDbLine
 10
77.38794846051891
 20
0.3248802169449643
 30
0.0
 11
77.51473394407913
 21
0.5967725638599901
 31
0.0
  0
LINE
  5
27A
330
1F
100
AcDbEntity
  8
0
  6
K5LT32784
 62
     7
370
    18
100
AcDbLine
 10
81.74091656148612
 20
9.65985043422649
 30
0.0
 11
81.86770204504633
 21
9.931742781141516
 31
0.0
  0
LINE
  5
27B
330
1F
100
AcDbEntity
  8
0
  6
K5LT32784
 62
     7
370
    18
100
AcDbLine
 10
86.09388466245332
 20
18.99482065150801
 30
0.0
 11
86.22067014601353
 21
19.26671299842304
 31
0.0
  0
LINE
  5
27C
330
1F
100
AcDbEntity
  8
0
  6
K5LT32784
 62
     7
370
    18
100
AcDbLine
 10
90.44685276342054
 20
28.32979086878954
 30
0.0
 11
90.57363824698075
 21
28.60168321570456
 31
0.0
  0
LINE
  5
27D
330
1F
100
AcDbEntity
  8
0
  6
K5LT32784
 62
     7
370
    18
100
AcDbLine
 10
94.79982086438775
 20
37.66476108607107
 30
0.0
 11
94.92660634794797
 21
37.93665343298609
 31
0.0
  0
LINE
  5
27E
330
1F
100
AcDbEntity
  8
0
  6
K5LT32784
 62
     7
370
    18
100
AcDbLine
 10
99.15278896535496
 20
46.99973130335259
 30
0.0
 11
99.27957444891517
 21
47.27162365026761
 31
0.0
  0
LINE
  5
27F
330
1F
100
AcDbEntity
  8
0
  6
K5LT32784
 62
     7
370
    18
100
AcDbLine
 10
74.96950083403917
 20
6.969510460831723
 30
0.0
 11
75.09628631759938
 21
7.241402807746748
 31
0.0
  0
LINE
  5
280
330
1F
100
AcDbEntity
  8
0
  6
K5LT32784
 62
     7
370
    18
100
AcDbLine
 10
79.32246893500637
 20
16.30448067811325
 30
0.0
 11
79.44925441856658
 21
16.57637302502827
 31
0.0
  0
LINE
  5
281
330
1F
100
AcDbEntity
  8
0
  6
K5LT32784
 62
     7
370
    18
100
AcDbLine
 10
83.67543703597357
 20
25.63945089539477
 30
0.0
 11
83.80222251953379
 21
25.9113432423098
 31
0.0
  0
LINE
  5
282
330
1F
100
AcDbEntity
  8
0
  6
K5LT32784
 62
     7
370
    18
100
AcDbLine
 10
88.02840513694079
 20
34.9744211126763
 30
0.0
 11
88.155190620501
 21
35.24631345959132
 31
0.0
  0
LINE
  5
283
330
1F
100
AcDbEntity
  8
0
  6
K5LT32784
 62
     7
370
    18
100
AcDbLine
 10
92.381373237908
 20
44.30939132995782
 30
0.0
 11
92.5081587214682
 21
44.58128367687284
 31
0.0
  0
LINE
  5
284
330
1F
100
AcDbEntity
  8
0
  6
K5LT32784
 62
     7
370
    18
100
AcDbLine
 10
96.73434133887521
 20
53.64436154723935
 30
0.0
 11
96.86112682243542
 21
53.91625389415437
 31
0.0
  0
LINE
  5
285
330
1F
100
AcDbEntity
  8
0
  6
K5LT32784
 62
     7
370
    18
100
AcDbLine
 10
68.19808503102216
 20
4.279170325376434
 30
0.0
 11
68.32487051458237
 21
4.55106267229146
 31
0.0
  0
LINE
  5
286
330
1F
100
AcDbEntity
  8
0
  6
K5LT32784
 62
     7
370
    18
100
AcDbLine
 10
72.55105313198936
 20
13.61414054265796
 30
0.0
 11
72.67783861554958
 21
13.88603288957298
 31
0.0
  0
LINE
  5
287
330
1F
100
AcDbEntity
  8
0
  6
K5LT32784
 62
     7
370
    18
100
AcDbLine
 10
76.90402123295657
 20
22.94911075993948
 30
0.0
 11
77.03080671651678
 21
23.22100310685451
 31
0.0
  0
LINE
  5
288
330
1F
100
AcDbEntity
  8
0
  6
K5LT32784
 62
     7
370
    18
100
AcDbLine
 10
81.25698933392377
 20
32.28408097722101
 30
0.0
 11
81.38377481748398
 21
32.55597332413603
 31
0.0
  0
LINE
  5
289
330
1F
100
AcDbEntity
  8
0
  6
K5LT32784
 62
     7
370
    18
100
AcDbLine
 10
85.60995743489097
 20
41.61905119450253
 30
0.0
 11
85.73674291845118
 21
41.89094354141756
 31
0.0
  0
LINE
  5
28A
330
1F
100
AcDbEntity
  8
0
  6
K5LT32784
 62
     7
370
    18
100
AcDbLine
 10
89.96292553585818
 20
50.95402141178405
 30
0.0
 11
90.08971101941839
 21
51.22591375869908
 31
0.0
  0
LINE
  5
28B
330
1F
100
AcDbEntity
  8
0
  6
K5LT32784
 62
     7
370
    18
100
AcDbLine
 10
94.3158936368254
 20
60.28899162906558
 30
0.0
 11
94.4426791203856
 21
60.5608839759806
 31
0.0
  0
LINE
  5
28C
330
1F
100
AcDbEntity
  8
0
  6
K5LT32784
 62
     7
370
    18
100
AcDbLine
 10
98.6688617377926
 20
69.62396184634711
 30
0.0
 11
98.79564722135281
 21
69.89585419326214
 31
0.0
  0
LINE
  5
28D
330
1F
100
AcDbEntity
  8
0
  6
K5LT32784
 62
     7
370
    18
100
AcDbLine
 10
61.42666922800517
 20
1.588830189921218
 30
0.0
 11
61.55345471156538
 21
1.860722536836244
 31
0.0
  0
LINE
  5
28E
330
1F
100
AcDbEntity
  8
0
  6
K5LT32784
 62
     7
370
    18
100
AcDbLine
 10
65.77963732897237
 20
10.92380040720274
 30
0.0
 11
65.90642281253258
 21
11.19569275411777
 31
0.0
  0
LINE
  5
28F
330
1F
100
AcDbEntity
  8
0
  6
K5LT32784
 62
     7
370
    18
100
AcDbLine
 10
70.13260542993957
 20
20.25877062448427
 30
0.0
 11
70.25939091349979
 21
20.53066297139929
 31
0.0
  0
LINE
  5
290
330
1F
100
AcDbEntity
  8
0
  6
K5LT32784
 62
     7
370
    18
100
AcDbLine
 10
74.48557353090678
 20
29.59374084176579
 30
0.0
 11
74.61235901446699
 21
29.86563318868082
 31
0.0
  0
LINE
  5
291
330
1F
100
AcDbEntity
  8
0
  6
K5LT32784
 62
     7
370
    18
100
AcDbLine
 10
78.838541631874
 20
38.92871105904732
 30
0.0
 11
78.9653271154342
 21
39.20060340596234
 31
0.0
  0
LINE
  5
292
330
1F
100
AcDbEntity
  8
0
  6
K5LT32784
 62
     7
370
    18
100
AcDbLine
 10
83.1915097328412
 20
48.26368127632884
 30
0.0
 11
83.31829521640141
 21
48.53557362324386
 31
0.0
  0
LINE
  5
293
330
1F
100
AcDbEntity
  8
0
  6
K5LT32784
 62
     7
370
    18
100
AcDbLine
 10
87.5444778338084
 20
57.59865149361036
 30
0.0
 11
87.67126331736861
 21
57.87054384052539
 31
0.0
  0
LINE
  5
294
330
1F
100
AcDbEntity
  8
0
  6
K5LT32784
 62
     7
370
    18
100
AcDbLine
 10
91.89744593477562
 20
66.93362171089188
 30
0.0
 11
92.02423141833583
 21
67.20551405780691
 31
0.0
  0
LINE
  5
295
330
1F
100
AcDbEntity
  8
0
  6
K5LT32784
 62
     7
370
    18
100
AcDbLine
 10
96.25041403574284
 20
76.26859192817342
 30
0.0
 11
96.37719951930305
 21
76.54048427508845
 31
0.0
  0
LINE
  5
296
330
1F
100
AcDbEntity
  8
0
  6
K5LT32784
 62
     7
370
    18
100
AcDbLine
 10
59.00822160152541
 20
8.23346043380796
 30
0.0
 11
59.13500708508563
 21
8.505352780722985
 31
0.0
  0
LINE
  5
297
330
1F
100
AcDbEntity
  8
0
  6
K5LT32784
 62
     7
370
    18
100
AcDbLine
 10
63.36118970249262
 20
17.56843065108949
 30
0.0
 11
63.48797518605284
 21
17.84032299800451
 31
0.0
  0
LINE
  5
298
330
1F
100
AcDbEntity
  8
0
  6
K5LT32784
 62
     7
370
    18
100
AcDbLine
 10
67.71415780345983
 20
26.90340086837101
 30
0.0
 11
67.84094328702004
 21
27.17529321528603
 31
0.0
  0
LINE
  5
299
330
1F
100
AcDbEntity
  8
0
  6
K5LT32784
 62
     7
370
    18
100
AcDbLine
 10
72.06712590442703
 20
36.23837108565253
 30
0.0
 11
72.19391138798724
 21
36.51026343256756
 31
0.0
  0
LINE
  5
29A
330
1F
100
AcDbEntity
  8
0
  6
K5LT32784
 62
     7
370
    18
100
AcDbLine
 10
76.42009400539423
 20
45.57334130293405
 30
0.0
 11
76.54687948895445
 21
45.84523364984908
 31
0.0
  0
LINE
  5
29B
330
1F
100
AcDbEntity
  8
0
  6
K5LT32784
 62
     7
370
    18
100
AcDbLine
 10
80.77306210636144
 20
54.90831152021558
 30
0.0
 11
80.89984758992165
 21
55.1802038671306
 31
0.0
  0
LINE
  5
29C
330
1F
100
AcDbEntity
  8
0
  6
K5LT32784
 62
     7
370
    18
100
AcDbLine
 10
85.12603020732864
 20
64.2432817374971
 30
0.0
 11
85.25281569088885
 21
64.51517408441212
 31
0.0
  0
LINE
  5
29D
330
1F
100
AcDbEntity
  8
0
  6
K5LT32784
 62
     7
370
    18
100
AcDbLine
 10
89.47899830829584
 20
73.57825195477862
 30
0.0
 11
89.60578379185606
 21
73.85014430169365
 31
0.0
  0
LINE
  5
29E
330
1F
100
AcDbEntity
  8
0
  6
K5LT32784
 62
     7
370
    18
100
AcDbLine
 10
93.83196640926306
 20
82.91322217206016
 30
0.0
 11
93.95875189282327
 21
83.18511451897518
 31
0.0
  0
LINE
  5
29F
330
1F
100
AcDbEntity
  8
0
  6
K5LT32784
 62
     7
370
    18
100
AcDbLine
 10
98.18493451023028
 20
92.24819238934168
 30
0.0
 11
98.31171999379049
 21
92.5200847362567
 31
0.0
  0
LINE
  5
2A0
330
1F
100
AcDbEntity
  8
0
  6
K5LT32784
 62
     7
370
    18
100
AcDbLine
 10
52.23680579850843
 20
5.54312029835274
 30
0.0
 11
52.36359128206864
 21
5.815012645267766
 31
0.0
  0
LINE
  5
2A1
330
1F
100
AcDbEntity
  8
0
  6
K5LT32784
 62
     7
370
    18
100
AcDbLine
 10
56.58977389947563
 20
14.87809051563426
 30
0.0
 11
56.71655938303584
 21
15.14998286254929
 31
0.0
  0
LINE
  5
2A2
330
1F
100
AcDbEntity
  8
0
  6
K5LT32784
 62
     7
370
    18
100
AcDbLine
 10
60.94274200044283
 20
24.21306073291579
 30
0.0
 11
61.06952748400305
 21
24.48495307983081
 31
0.0
  0
LINE
  5
2A3
330
1F
100
AcDbEntity
  8
0
  6
K5LT32784
 62
     7
370
    18
100
AcDbLine
 10
65.29571010141004
 20
33.54803095019732
 30
0.0
 11
65.42249558497025
 21
33.81992329711234
 31
0.0
  0
LINE
  5
2A4
330
1F
100
AcDbEntity
  8
0
  6
K5LT32784
 62
     7
370
    18
100
AcDbLine
 10
69.64867820237724
 20
42.88300116747884
 30
0.0
 11
69.77546368593745
 21
43.15489351439386
 31
0.0
  0
LINE
  5
2A5
330
1F
100
AcDbEntity
  8
0
  6
K5LT32784
 62
     7
370
    18
100
AcDbLine
 10
74.00164630334444
 20
52.21797138476036
 30
0.0
 11
74.12843178690466
 21
52.48986373167538
 31
0.0
  0
LINE
  5
2A6
330
1F
100
AcDbEntity
  8
0
  6
K5LT32784
 62
     7
370
    18
100
AcDbLine
 10
78.35461440431166
 20
61.55294160204188
 30
0.0
 11
78.48139988787187
 21
61.82483394895691
 31
0.0
  0
LINE
  5
2A7
330
1F
100
AcDbEntity
  8
0
  6
K5LT32784
 62
     7
370
    18
100
AcDbLine
 10
82.70758250527886
 20
70.8879118193234
 30
0.0
 11
82.83436798883908
 21
71.15980416623843
 31
0.0
  0
LINE
  5
2A8
330
1F
100
AcDbEntity
  8
0
  6
K5LT32784
 62
     7
370
    18
100
AcDbLine
 10
87.06055060624607
 20
80.22288203660493
 30
0.0
 11
87.18733608980628
 21
80.49477438351995
 31
0.0
  0
LINE
  5
2A9
330
1F
100
AcDbEntity
  8
0
  6
K5LT32784
 62
     7
370
    18
100
AcDbLine
 10
91.41351870721329
 20
89.55785225388647
 30
0.0
 11
91.5403041907735
 21
89.82974460080149
 31
0.0
  0
LINE
  5
2AA
330
1F
100
AcDbEntity
  8
0
  6
K5LT32784
 62
     7
370
    18
100
AcDbLine
 10
95.7664868081805
 20
98.89282247116799
 30
0.0
 11
95.89327229174071
 21
99.16471481808301
 31
0.0
  0
LINE
  5
2AB
330
1F
100
AcDbEntity
  8
0
  6
K5LT32784
 62
     7
370
    18
100
AcDbLine
 10
45.46538999549143
 20
2.852780162897488
 30
0.0
 11
45.59217547905164
 21
3.124672509812513
 31
0.0
  0
LINE
  5
2AC
330
1F
100
AcDbEntity
  8
0
  6
K5LT32784
 62
     7
370
    18
100
AcDbLine
 10
49.81835809645863
 20
12.18775038017901
 30
0.0
 11
49.94514358001884
 21
12.45964272709404
 31
0.0
  0
LINE
  5
2AD
330
1F
100
AcDbEntity
  8
0
  6
K5LT32784
 62
     7
370
    18
100
AcDbLine
 10
54.17132619742583
 20
21.52272059746053
 30
0.0
 11
54.29811168098605
 21
21.79461294437556
 31
0.0
  0
LINE
  5
2AE
330
1F
100
AcDbEntity
  8
0
  6
K5LT32784
 62
     7
370
    18
100
AcDbLine
 10
58.52429429839304
 20
30.85769081474206
 30
0.0
 11
58.65107978195325
 21
31.12958316165708
 31
0.0
  0
LINE
  5
2AF
330
1F
100
AcDbEntity
  8
0
  6
K5LT32784
 62
     7
370
    18
100
AcDbLine
 10
62.87726239936025
 20
40.19266103202358
 30
0.0
 11
63.00404788292046
 21
40.4645533789386
 31
0.0
  0
LINE
  5
2B0
330
1F
100
AcDbEntity
  8
0
  6
K5LT32784
 62
     7
370
    18
100
AcDbLine
 10
67.23023050032745
 20
49.5276312493051
 30
0.0
 11
67.35701598388766
 21
49.79952359622013
 31
0.0
  0
LINE
  5
2B1
330
1F
100
AcDbEntity
  8
0
  6
K5LT32784
 62
     7
370
    18
100
AcDbLine
 10
71.58319860129465
 20
58.86260146658663
 30
0.0
 11
71.70998408485487
 21
59.13449381350165
 31
0.0
  0
LINE
  5
2B2
330
1F
100
AcDbEntity
  8
0
  6
K5LT32784
 62
     7
370
    18
100
AcDbLine
 10
75.93616670226186
 20
68.19757168386815
 30
0.0
 11
76.06295218582207
 21
68.46946403078317
 31
0.0
  0
LINE
  5
2B3
330
1F
100
AcDbEntity
  8
0
  6
K5LT32784
 62
     7
370
    18
100
AcDbLine
 10
80.28913480322906
 20
77.53254190114967
 30
0.0
 11
80.41592028678927
 21
77.8044342480647
 31
0.0
  0
LINE
  5
2B4
330
1F
100
AcDbEntity
  8
0
  6
K5LT32784
 62
     7
370
    18
100
AcDbLine
 10
84.64210290419626
 20
86.8675121184312
 30
0.0
 11
84.76888838775648
 21
87.13940446534622
 31
0.0
  0
LINE
  5
2B5
330
1F
100
AcDbEntity
  8
0
  6
K5LT32784
 62
     7
370
    18
100
AcDbLine
 10
88.99507100516348
 20
96.20248233571273
 30
0.0
 11
89.1218564887237
 21
96.47437468262775
 31
0.0
  0
LINE
  5
2B6
330
1F
100
AcDbEntity
  8
0
  6
K5LT32784
 62
     7
370
    18
100
AcDbLine
 10
38.69397419247444
 20
0.1624400274422451
 30
0.0
 11
38.82075967603465
 21
0.4343323743572709
 31
0.0
  0
LINE
  5
2B7
330
1F
100
AcDbEntity
  8
0
  6
K5LT32784
 62
     7
370
    18
100
AcDbLine
 10
43.04694229344164
 20
9.49741024472377
 30
0.0
 11
43.17372777700185
 21
9.769302591638796
 31
0.0
  0
LINE
  5
2B8
330
1F
100
AcDbEntity
  8
0
  6
K5LT32784
 62
     7
370
    18
100
AcDbLine
 10
47.39991039440885
 20
18.8323804620053
 30
0.0
 11
47.52669587796906
 21
19.10427280892032
 31
0.0
  0
LINE
  5
2B9
330
1F
100
AcDbEntity
  8
0
  6
K5LT32784
 62
     7
370
    18
100
AcDbLine
 10
51.75287849537605
 20
28.16735067928682
 30
0.0
 11
51.87966397893626
 21
28.43924302620184
 31
0.0
  0
LINE
  5
2BA
330
1F
100
AcDbEntity
  8
0
  6
K5LT32784
 62
     7
370
    18
100
AcDbLine
 10
56.10584659634326
 20
37.50232089656834
 30
0.0
 11
56.23263207990347
 21
37.77421324348337
 31
0.0
  0
LINE
  5
2BB
330
1F
100
AcDbEntity
  8
0
  6
K5LT32784
 62
     7
370
    18
100
AcDbLine
 10
60.45881469731047
 20
46.83729111384987
 30
0.0
 11
60.58560018087068
 21
47.1091834607649
 31
0.0
  0
LINE
  5
2BC
330
1F
100
AcDbEntity
  8
0
  6
K5LT32784
 62
     7
370
    18
100
AcDbLine
 10
64.81178279827768
 20
56.17226133113139
 30
0.0
 11
64.93856828183789
 21
56.44415367804642
 31
0.0
  0
LINE
  5
2BD
330
1F
100
AcDbEntity
  8
0
  6
K5LT32784
 62
     7
370
    18
100
AcDbLine
 10
69.16475089924488
 20
65.50723154841292
 30
0.0
 11
69.29153638280509
 21
65.77912389532794
 31
0.0
  0
LINE
  5
2BE
330
1F
100
AcDbEntity
  8
0
  6
K5LT32784
 62
     7
370
    18
100
AcDbLine
 10
73.51771900021208
 20
74.84220176569444
 30
0.0
 11
73.6445044837723
 21
75.11409411260946
 31
0.0
  0
LINE
  5
2BF
330
1F
100
AcDbEntity
  8
0
  6
K5LT32784
 62
     7
370
    18
100
AcDbLine
 10
77.87068710117929
 20
84.17717198297596
 30
0.0
 11
77.9974725847395
 21
84.44906432989099
 31
0.0
  0
LINE
  5
2C0
330
1F
100
AcDbEntity
  8
0
  6
K5LT32784
 62
     7
370
    18
100
AcDbLine
 10
82.22365520214649
 20
93.5121422002575
 30
0.0
 11
82.3504406857067
 21
93.78403454717252
 31
0.0
  0
LINE
  5
2C1
330
1F
100
AcDbEntity
  8
0
  6
K5LT32784
 62
     7
370
    18
100
AcDbLine
 10
36.27552656599469
 20
6.807070271328993
 30
0.0
 11
36.4023120495549
 21
7.078962618244018
 31
0.0
  0
LINE
  5
2C2
330
1F
100
AcDbEntity
  8
0
  6
K5LT32784
 62
     7
370
    18
100
AcDbLine
 10
40.62849466696189
 20
16.14204048861052
 30
0.0
 11
40.7552801505221
 21
16.41393283552554
 31
0.0
  0
LINE
  5
2C3
330
1F
100
AcDbEntity
  8
0
  6
K5LT32784
 62
     7
370
    18
100
AcDbLine
 10
44.9814627679291
 20
25.47701070589204
 30
0.0
 11
45.10824825148931
 21
25.74890305280707
 31
0.0
  0
LINE
  5
2C4
330
1F
100
AcDbEntity
  8
0
  6
K5LT32784
 62
     7
370
    18
100
AcDbLine
 10
49.3344308688963
 20
34.81198092317356
 30
0.0
 11
49.46121635245651
 21
35.08387327008859
 31
0.0
  0
LINE
  5
2C5
330
1F
100
AcDbEntity
  8
0
  6
K5LT32784
 62
     7
370
    18
100
AcDbLine
 10
53.6873989698635
 20
44.14695114045509
 30
0.0
 11
53.81418445342371
 21
44.41884348737011
 31
0.0
  0
LINE
  5
2C6
330
1F
100
AcDbEntity
  8
0
  6
K5LT32784
 62
     7
370
    18
100
AcDbLine
 10
58.04036707083071
 20
53.48192135773661
 30
0.0
 11
58.16715255439092
 21
53.75381370465163
 31
0.0
  0
LINE
  5
2C7
330
1F
100
AcDbEntity
  8
0
  6
K5LT32784
 62
     7
370
    18
100
AcDbLine
 10
62.39333517179791
 20
62.81689157501813
 30
0.0
 11
62.52012065535813
 21
63.08878392193316
 31
0.0
  0
LINE
  5
2C8
330
1F
100
AcDbEntity
  8
0
  6
K5LT32784
 62
     7
370
    18
100
AcDbLine
 10
66.74630327276512
 20
72.15186179229966
 30
0.0
 11
66.87308875632533
 21
72.42375413921468
 31
0.0
  0
LINE
  5
2C9
330
1F
100
AcDbEntity
  8
0
  6
K5LT32784
 62
     7
370
    18
100
AcDbLine
 10
71.09927137373232
 20
81.48683200958118
 30
0.0
 11
71.22605685729253
 21
81.7587243564962
 31
0.0
  0
LINE
  5
2CA
330
1F
100
AcDbEntity
  8
0
  6
K5LT32784
 62
     7
370
    18
100
AcDbLine
 10
75.45223947469952
 20
90.82180222686272
 30
0.0
 11
75.57902495825974
 21
91.09369457377774
 31
0.0
  0
LINE
  5
2CB
330
1F
100
AcDbEntity
  8
0
  6
K5LT32784
 62
     7
370
    18
100
AcDbLine
 10
29.50411076297769
 20
4.116730135873755
 30
0.0
 11
29.6308962465379
 21
4.388622482788781
 31
0.0
  0
LINE
  5
2CC
330
1F
100
AcDbEntity
  8
0
  6
K5LT32784
 62
     7
370
    18
100
AcDbLine
 10
33.8570788639449
 20
13.45170035315528
 30
0.0
 11
33.98386434750511
 21
13.72359270007031
 31
0.0
  0
LINE
  5
2CD
330
1F
100
AcDbEntity
  8
0
  6
K5LT32784
 62
     7
370
    18
100
AcDbLine
 10
38.21004696491211
 20
22.7866705704368
 30
0.0
 11
38.33683244847232
 21
23.05856291735183
 31
0.0
  0
LINE
  5
2CE
330
1F
100
AcDbEntity
  8
0
  6
K5LT32784
 62
     7
370
    18
100
AcDbLine
 10
42.56301506587931
 20
32.12164078771833
 30
0.0
 11
42.68980054943952
 21
32.39353313463335
 31
0.0
  0
LINE
  5
2CF
330
1F
100
AcDbEntity
  8
0
  6
K5LT32784
 62
     7
370
    18
100
AcDbLine
 10
46.91598316684652
 20
41.45661100499985
 30
0.0
 11
47.04276865040673
 21
41.72850335191487
 31
0.0
  0
LINE
  5
2D0
330
1F
100
AcDbEntity
  8
0
  6
K5LT32784
 62
     7
370
    18
100
AcDbLine
 10
51.26895126781373
 20
50.79158122228137
 30
0.0
 11
51.39573675137394
 21
51.0634735691964
 31
0.0
  0
LINE
  5
2D1
330
1F
100
AcDbEntity
  8
0
  6
K5LT32784
 62
     7
370
    18
100
AcDbLine
 10
55.62191936878094
 20
60.1265514395629
 30
0.0
 11
55.74870485234115
 21
60.39844378647793
 31
0.0
  0
LINE
  5
2D2
330
1F
100
AcDbEntity
  8
0
  6
K5LT32784
 62
     7
370
    18
100
AcDbLine
 10
59.97488746974814
 20
69.46152165684443
 30
0.0
 11
60.10167295330835
 21
69.73341400375945
 31
0.0
  0
LINE
  5
2D3
330
1F
100
AcDbEntity
  8
0
  6
K5LT32784
 62
     7
370
    18
100
AcDbLine
 10
64.32785557071534
 20
78.79649187412595
 30
0.0
 11
64.45464105427556
 21
79.06838422104097
 31
0.0
  0
LINE
  5
2D4
330
1F
100
AcDbEntity
  8
0
  6
K5LT32784
 62
     7
370
    18
100
AcDbLine
 10
68.68082367168255
 20
88.13146209140747
 30
0.0
 11
68.80760915524276
 21
88.4033544383225
 31
0.0
  0
LINE
  5
2D5
330
1F
100
AcDbEntity
  8
0
  6
K5LT32784
 62
     7
370
    18
100
AcDbLine
 10
73.03379177264976
 20
97.46643230868901
 30
0.0
 11
73.16057725620998
 21
97.73832465560403
 31
0.0
  0
LINE
  5
2D6
330
1F
100
AcDbEntity
  8
0
  6
K5LT32784
 62
     7
370
    18
100
AcDbLine
 10
22.7326949599607
 20
1.426390000418513
 30
0.0
 11
22.85948044352091
 21
1.698282347333539
 31
0.0
  0
LINE
  5
2D7
330
1F
100
AcDbEntity
  8
0
  6
K5LT32784
 62
     7
370
    18
100
AcDbLine
 10
27.08566306092791
 20
10.76136021770004
 30
0.0
 11
27.21244854448812
 21
11.03325256461506
 31
0.0
  0
LINE
  5
2D8
330
1F
100
AcDbEntity
  8
0
  6
K5LT32784
 62
     7
370
    18
100
AcDbLine
 10
31.43863116189511
 20
20.09633043498156
 30
0.0
 11
31.56541664545533
 21
20.36822278189658
 31
0.0
  0
LINE
  5
2D9
330
1F
100
AcDbEntity
  8
0
  6
K5LT32784
 62
     7
370
    18
100
AcDbLine
 10
35.79159926286232
 20
29.43130065226308
 30
0.0
 11
35.91838474642253
 21
29.70319299917811
 31
0.0
  0
LINE
  5
2DA
330
1F
100
AcDbEntity
  8
0
  6
K5LT32784
 62
     7
370
    18
100
AcDbLine
 10
40.14456736382953
 20
38.76627086954461
 30
0.0
 11
40.27135284738974
 21
39.03816321645963
 31
0.0
  0
LINE
  5
2DB
330
1F
100
AcDbEntity
  8
0
  6
K5LT32784
 62
     7
370
    18
100
AcDbLine
 10
44.49753546479674
 20
48.10124108682614
 30
0.0
 11
44.62432094835695
 21
48.37313343374116
 31
0.0
  0
LINE
  5
2DC
330
1F
100
AcDbEntity
  8
0
  6
K5LT32784
 62
     7
370
    18
100
AcDbLine
 10
48.85050356576395
 20
57.43621130410766
 30
0.0
 11
48.97728904932416
 21
57.70810365102268
 31
0.0
  0
LINE
  5
2DD
330
1F
100
AcDbEntity
  8
0
  6
K5LT32784
 62
     7
370
    18
100
AcDbLine
 10
53.20347166673116
 20
66.77118152138918
 30
0.0
 11
53.33025715029137
 21
67.0430738683042
 31
0.0
  0
LINE
  5
2DE
330
1F
100
AcDbEntity
  8
0
  6
K5LT32784
 62
     7
370
    18
100
AcDbLine
 10
57.55643976769836
 20
76.1061517386707
 30
0.0
 11
57.68322525125858
 21
76.37804408558573
 31
0.0
  0
LINE
  5
2DF
330
1F
100
AcDbEntity
  8
0
  6
K5LT32784
 62
     7
370
    18
100
AcDbLine
 10
61.90940786866557
 20
85.44112195595223
 30
0.0
 11
62.03619335222578
 21
85.71301430286725
 31
0.0
  0
LINE
  5
2E0
330
1F
100
AcDbEntity
  8
0
  6
K5LT32784
 62
     7
370
    18
100
AcDbLine
 10
66.26237596963277
 20
94.77609217323376
 30
0.0
 11
66.38916145319298
 21
95.04798452014879
 31
0.0
  0
LINE
  5
2E1
330
1F
100
AcDbEntity
  8
0
  6
K5LT32784
 62
     7
370
    18
100
AcDbLine
 10
20.31424733348095
 20
8.07102024430526
 30
0.0
 11
20.44103281704116
 21
8.342912591220285
 31
0.0
  0
LINE
  5
2E2
330
1F
100
AcDbEntity
  8
0
  6
K5LT32784
 62
     7
370
    18
100
AcDbLine
 10
24.66721543444816
 20
17.40599046158679
 30
0.0
 11
24.79400091800837
 21
17.67788280850181
 31
0.0
  0
LINE
  5
2E3
330
1F
100
AcDbEntity
  8
0
  6
K5LT32784
 62
     7
370
    18
100
AcDbLine
 10
29.02018353541536
 20
26.74096067886831
 30
0.0
 11
29.14696901897558
 21
27.01285302578334
 31
0.0
  0
LINE
  5
2E4
330
1F
100
AcDbEntity
  8
0
  6
K5LT32784
 62
     7
370
    18
100
AcDbLine
 10
33.37315163638257
 20
36.07593089614983
 30
0.0
 11
33.49993711994279
 21
36.34782324306486
 31
0.0
  0
LINE
  5
2E5
330
1F
100
AcDbEntity
  8
0
  6
K5LT32784
 62
     7
370
    18
100
AcDbLine
 10
37.72611973734978
 20
45.41090111343136
 30
0.0
 11
37.85290522090999
 21
45.68279346034638
 31
0.0
  0
LINE
  5
2E6
330
1F
100
AcDbEntity
  8
0
  6
K5LT32784
 62
     7
370
    18
100
AcDbLine
 10
42.07908783831698
 20
54.74587133071288
 30
0.0
 11
42.20587332187719
 21
55.0177636776279
 31
0.0
  0
LINE
  5
2E7
330
1F
100
AcDbEntity
  8
0
  6
K5LT32784
 62
     7
370
    18
100
AcDbLine
 10
46.43205593928419
 20
64.08084154799441
 30
0.0
 11
46.5588414228444
 21
64.35273389490943
 31
0.0
  0
LINE
  5
2E8
330
1F
100
AcDbEntity
  8
0
  6
K5LT32784
 62
     7
370
    18
100
AcDbLine
 10
50.7850240402514
 20
73.41581176527593
 30
0.0
 11
50.91180952381161
 21
73.68770411219096
 31
0.0
  0
LINE
  5
2E9
330
1F
100
AcDbEntity
  8
0
  6
K5LT32784
 62
     7
370
    18
100
AcDbLine
 10
55.1379921412186
 20
82.75078198255746
 30
0.0
 11
55.26477762477882
 21
83.02267432947248
 31
0.0
  0
LINE
  5
2EA
330
1F
100
AcDbEntity
  8
0
  6
K5LT32784
 62
     7
370
    18
100
AcDbLine
 10
59.49096024218581
 20
92.08575219983899
 30
0.0
 11
59.61774572574602
 21
92.35764454675402
 31
0.0
  0
LINE
  5
2EB
330
1F
100
AcDbEntity
  8
0
  6
K5LT32784
 62
     7
370
    18
100
AcDbLine
 10
13.54283153046395
 20
5.38068010885002
 30
0.0
 11
13.66961701402417
 21
5.652572455765045
 31
0.0
  0
LINE
  5
2EC
330
1F
100
AcDbEntity
  8
0
  6
K5LT32784
 62
     7
370
    18
100
AcDbLine
 10
17.89579963143116
 20
14.71565032613155
 30
0.0
 11
18.02258511499137
 21
14.98754267304657
 31
0.0
  0
LINE
  5
2ED
330
1F
100
AcDbEntity
  8
0
  6
K5LT32784
 62
     7
370
    18
100
AcDbLine
 10
22.24876773239837
 20
24.05062054341307
 30
0.0
 11
22.37555321595858
 21
24.32251289032809
 31
0.0
  0
LINE
  5
2EE
330
1F
100
AcDbEntity
  8
0
  6
K5LT32784
 62
     7
370
    18
100
AcDbLine
 10
26.60173583336557
 20
33.38559076069459
 30
0.0
 11
26.72852131692579
 21
33.65748310760961
 31
0.0
  0
LINE
  5
2EF
330
1F
100
AcDbEntity
  8
0
  6
K5LT32784
 62
     7
370
    18
100
AcDbLine
 10
30.95470393433278
 20
42.72056097797611
 30
0.0
 11
31.08148941789299
 21
42.99245332489114
 31
0.0
  0
LINE
  5
2F0
330
1F
100
AcDbEntity
  8
0
  6
K5LT32784
 62
     7
370
    18
100
AcDbLine
 10
35.30767203529999
 20
52.05553119525764
 30
0.0
 11
35.4344575188602
 21
52.32742354217267
 31
0.0
  0
LINE
  5
2F1
330
1F
100
AcDbEntity
  8
0
  6
K5LT32784
 62
     7
370
    18
100
AcDbLine
 10
39.66064013626719
 20
61.39050141253917
 30
0.0
 11
39.7874256198274
 21
61.66239375945419
 31
0.0
  0
LINE
  5
2F2
330
1F
100
AcDbEntity
  8
0
  6
K5LT32784
 62
     7
370
    18
100
AcDbLine
 10
44.01360823723439
 20
70.72547162982069
 30
0.0
 11
44.14039372079461
 21
70.99736397673571
 31
0.0
  0
LINE
  5
2F3
330
1F
100
AcDbEntity
  8
0
  6
K5LT32784
 62
     7
370
    18
100
AcDbLine
 10
48.3665763382016
 20
80.06044184710221
 30
0.0
 11
48.49336182176182
 21
80.33233419401724
 31
0.0
  0
LINE
  5
2F4
330
1F
100
AcDbEntity
  8
0
  6
K5LT32784
 62
     7
370
    18
100
AcDbLine
 10
52.71954443916881
 20
89.39541206438375
 30
0.0
 11
52.84632992272902
 21
89.66730441129877
 31
0.0
  0
LINE
  5
2F5
330
1F
100
AcDbEntity
  8
0
  6
K5LT32784
 62
     7
370
    18
100
AcDbLine
 10
57.07251254013602
 20
98.73038228166527
 30
0.0
 11
57.19929802369623
 21
99.0022746285803
 31
0.0
  0
LINE
  5
2F6
330
1F
100
AcDbEntity
  8
0
  6
K5LT32784
 62
     7
370
    18
100
AcDbLine
 10
6.771415727446959
 20
2.690339973394779
 30
0.0
 11
6.898201211007171
 21
2.962232320309805
 31
0.0
  0
LINE
  5
2F7
330
1F
100
AcDbEntity
  8
0
  6
K5LT32784
 62
     7
370
    18
100
AcDbLine
 10
11.12438382841417
 20
12.0253101906763
 30
0.0
 11
11.25116931197438
 21
12.29720253759133
 31
0.0
  0
LINE
  5
2F8
330
1F
100
AcDbEntity
  8
0
  6
K5LT32784
 62
     7
370
    18
100
AcDbLine
 10
15.47735192938137
 20
21.36028040795783
 30
0.0
 11
15.60413741294159
 21
21.63217275487285
 31
0.0
  0
LINE
  5
2F9
330
1F
100
AcDbEntity
  8
0
  6
K5LT32784
 62
     7
370
    18
100
AcDbLine
 10
19.83032003034858
 20
30.69525062523935
 30
0.0
 11
19.95710551390879
 21
30.96714297215438
 31
0.0
  0
LINE
  5
2FA
330
1F
100
AcDbEntity
  8
0
  6
K5LT32784
 62
     7
370
    18
100
AcDbLine
 10
24.18328813131579
 20
40.03022084252088
 30
0.0
 11
24.310073614876
 21
40.3021131894359
 31
0.0
  0
LINE
  5
2FB
330
1F
100
AcDbEntity
  8
0
  6
K5LT32784
 62
     7
370
    18
100
AcDbLine
 10
28.53625623228299
 20
49.3651910598024
 30
0.0
 11
28.66304171584321
 21
49.63708340671742
 31
0.0
  0
LINE
  5
2FC
330
1F
100
AcDbEntity
  8
0
  6
K5LT32784
 62
     7
370
    18
100
AcDbLine
 10
32.8892243332502
 20
58.70016127708392
 30
0.0
 11
33.01600981681042
 21
58.97205362399895
 31
0.0
  0
LINE
  5
2FD
330
1F
100
AcDbEntity
  8
0
  6
K5LT32784
 62
     7
370
    18
100
AcDbLine
 10
37.24219243421742
 20
68.03513149436544
 30
0.0
 11
37.36897791777763
 21
68.30702384128047
 31
0.0
  0
LINE
  5
2FE
330
1F
100
AcDbEntity
  8
0
  6
K5LT32784
 62
     7
370
    18
100
AcDbLine
 10
41.59516053518462
 20
77.37010171164698
 30
0.0
 11
41.72194601874483
 21
77.641994058562
 31
0.0
  0
LINE
  5
2FF
330
1F
100
AcDbEntity
  8
0
  6
K5LT32784
 62
     7
370
    18
100
AcDbLine
 10
45.94812863615182
 20
86.7050719289285
 30
0.0
 11
46.07491411971203
 21
86.97696427584353
 31
0.0
  0
LINE
  5
300
330
1F
100
AcDbEntity
  8
0
  6
K5LT32784
 62
     7
370
    18
100
AcDbLine
 10
50.30109673711903
 20
96.04004214621004
 30
0.0
 11
50.42788222067924
 21
96.31193449312507
 31
0.0
  0
LINE
  5
301
330
1F
100
AcDbEntity
  8
0
  6
K5LT32784
 62
     7
370
    18
100
AcDbLine
 10
4.226182617406995
 20
9.0630778703665
 30
0.0
 11
4.352968100967207
 21
9.334970217281526
 31
0.0
  0
LINE
  5
302
330
1F
100
AcDbEntity
  8
0
  6
K5LT32784
 62
     7
370
    18
100
AcDbLine
 10
8.579150718374201
 20
18.39804808764803
 30
0.0
 11
8.705936201934414
 21
18.66994043456305
 31
0.0
  0
LINE
  5
303
330
1F
100
AcDbEntity
  8
0
  6
K5LT32784
 62
     7
370
    18
100
AcDbLine
 10
12.93211881934141
 20
27.73301830492955
 30
0.0
 11
13.05890430290162
 21
28.00491065184458
 31
0.0
  0
LINE
  5
304
330
1F
100
AcDbEntity
  8
0
  6
K5LT32784
 62
     7
370
    18
100
AcDbLine
 10
17.28508692030861
 20
37.06798852221108
 30
0.0
 11
17.41187240386883
 21
37.33988086912611
 31
0.0
  0
LINE
  5
305
330
1F
100
AcDbEntity
  8
0
  6
K5LT32784
 62
     7
370
    18
100
AcDbLine
 10
21.63805502127582
 20
46.4029587394926
 30
0.0
 11
21.76484050483603
 21
46.67485108640763
 31
0.0
  0
LINE
  5
306
330
1F
100
AcDbEntity
  8
0
  6
K5LT32784
 62
     7
370
    18
100
AcDbLine
 10
25.99102312224303
 20
55.73792895677413
 30
0.0
 11
26.11780860580324
 21
56.00982130368915
 31
0.0
  0
LINE
  5
307
330
1F
100
AcDbEntity
  8
0
  6
K5LT32784
 62
     7
370
    18
100
AcDbLine
 10
30.34399122321024
 20
65.07289917405565
 30
0.0
 11
30.47077670677045
 21
65.34479152097067
 31
0.0
  0
LINE
  5
308
330
1F
100
AcDbEntity
  8
0
  6
K5LT32784
 62
     7
370
    18
100
AcDbLine
 10
34.69695932417744
 20
74.40786939133717
 30
0.0
 11
34.82374480773765
 21
74.6797617382522
 31
0.0
  0
LINE
  5
309
330
1F
100
AcDbEntity
  8
0
  6
K5LT32784
 62
     7
370
    18
100
AcDbLine
 10
39.04992742514465
 20
83.7428396086187
 30
0.0
 11
39.17671290870486
 21
84.01473195553372
 31
0.0
  0
LINE
  5
30A
330
1F
100
AcDbEntity
  8
0
  6
K5LT32784
 62
     7
370
    18
100
AcDbLine
 10
43.40289552611185
 20
93.07780982590023
 30
0.0
 11
43.52968100967206
 21
93.34970217281526
 31
0.0
  0
LINE
  5
30B
330
1F
100
AcDbEntity
  8
0
  6
K5LT32784
 62
     7
370
    18
100
AcDbLine
 10
1.934520474487454
 20
15.97960046116827
 30
0.0
 11
2.061305958047666
 21
16.2514928080833
 31
0.0
  0
LINE
  5
30C
330
1F
100
AcDbEntity
  8
0
  6
K5LT32784
 62
     7
370
    18
100
AcDbLine
 10
6.287488575454661
 20
25.3145706784498
 30
0.0
 11
6.414274059014873
 21
25.58646302536482
 31
0.0
  0
LINE
  5
30D
330
1F
100
AcDbEntity
  8
0
  6
K5LT32784
 62
     7
370
    18
100
AcDbLine
 10
10.64045667642187
 20
34.64954089573132
 30
0.0
 11
10.76724215998208
 21
34.92143324264634
 31
0.0
  0
LINE
  5
30E
330
1F
100
AcDbEntity
  8
0
  6
K5LT32784
 62
     7
370
    18
100
AcDbLine
 10
14.99342477738907
 20
43.98451111301284
 30
0.0
 11
15.12021026094929
 21
44.25640345992787
 31
0.0
  0
LINE
  5
30F
330
1F
100
AcDbEntity
  8
0
  6
K5LT32784
 62
     7
370
    18
100
AcDbLine
 10
19.34639287835628
 20
53.31948133029437
 30
0.0
 11
19.47317836191649
 21
53.59137367720939
 31
0.0
  0
LINE
  5
310
330
1F
100
AcDbEntity
  8
0
  6
K5LT32784
 62
     7
370
    18
100
AcDbLine
 10
23.69936097932349
 20
62.6544515475759
 30
0.0
 11
23.8261464628837
 21
62.92634389449092
 31
0.0
  0
LINE
  5
311
330
1F
100
AcDbEntity
  8
0
  6
K5LT32784
 62
     7
370
    18
100
AcDbLine
 10
28.05232908029069
 20
71.98942176485743
 30
0.0
 11
28.17911456385091
 21
72.26131411177245
 31
0.0
  0
LINE
  5
312
330
1F
100
AcDbEntity
  8
0
  6
K5LT32784
 62
     7
370
    18
100
AcDbLine
 10
32.4052971812579
 20
81.32439198213895
 30
0.0
 11
32.53208266481811
 21
81.59628432905397
 31
0.0
  0
LINE
  5
313
330
1F
100
AcDbEntity
  8
0
  6
K5LT32784
 62
     7
370
    18
100
AcDbLine
 10
36.75826528222511
 20
90.65936219942049
 30
0.0
 11
36.88505076578532
 21
90.93125454633551
 31
0.0
  0
LINE
  5
314
330
1F
100
AcDbEntity
  8
0
  6
K5LT32784
 62
     7
370
    18
100
AcDbLine
 10
41.11123338319231
 20
99.99433241670201
 30
0.0
 11
41.11387622068739
 21
100.0
 31
0.0
  0
LINE
  5
315
330
1F
100
AcDbEntity
  8
0
  6
K5LT32784
 62
     7
370
    18
100
AcDbLine
 10
3.869041024544943
 20
31.959201084397
 30
0.0
 11
3.995826508105155
 21
32.23109343131203
 31
0.0
  0
LINE
  5
316
330
1F
100
AcDbEntity
  8
0
  6
K5LT32784
 62
     7
370
    18
100
AcDbLine
 10
8.22200912551215
 20
41.29417130167852
 30
0.0
 11
8.348794609072362
 21
41.56606364859355
 31
0.0
  0
LINE
  5
317
330
1F
100
AcDbEntity
  8
0
  6
K5LT32784
 62
     7
370
    18
100
AcDbLine
 10
12.57497722647936
 20
50.62914151896005
 30
0.0
 11
12.70176271003957
 21
50.90103386587507
 31
0.0
  0
LINE
  5
318
330
1F
100
AcDbEntity
  8
0
  6
K5LT32784
 62
     7
370
    18
100
AcDbLine
 10
16.92794532744657
 20
59.96411173624158
 30
0.0
 11
17.05473081100678
 21
60.2360040831566
 31
0.0
  0
LINE
  5
319
330
1F
100
AcDbEntity
  8
0
  6
K5LT32784
 62
     7
370
    18
100
AcDbLine
 10
21.28091342841377
 20
69.2990819535231
 30
0.0
 11
21.40769891197398
 21
69.57097430043812
 31
0.0
  0
LINE
  5
31A
330
1F
100
AcDbEntity
  8
0
  6
K5LT32784
 62
     7
370
    18
100
AcDbLine
 10
25.63388152938098
 20
78.63405217080462
 30
0.0
 11
25.76066701294119
 21
78.90594451771965
 31
0.0
  0
LINE
  5
31B
330
1F
100
AcDbEntity
  8
0
  6
K5LT32784
 62
     7
370
    18
100
AcDbLine
 10
29.98684963034819
 20
87.96902238808616
 30
0.0
 11
30.1136351139084
 21
88.24091473500118
 31
0.0
  0
LINE
  5
31C
330
1F
100
AcDbEntity
  8
0
  6
K5LT32784
 62
     7
370
    18
100
AcDbLine
 10
34.33981773131539
 20
97.30399260536768
 30
0.0
 11
34.4666032148756
 21
97.5758849522827
 31
0.0
  0
LINE
  5
31D
330
1F
100
AcDbEntity
  8
0
  6
K5LT32784
 62
     7
370
    18
100
AcDbLine
 10
1.450593398065188
 20
38.60383132828375
 30
0.0
 11
1.577378881625401
 21
38.87572367519878
 31
0.0
  0
LINE
  5
31E
330
1F
100
AcDbEntity
  8
0
  6
K5LT32784
 62
     7
370
    18
100
AcDbLine
 10
5.803561499032396
 20
47.93880154556528
 30
0.0
 11
5.930346982592608
 21
48.2106938924803
 31
0.0
  0
LINE
  5
31F
330
1F
100
AcDbEntity
  8
0
  6
K5LT32784
 62
     7
370
    18
100
AcDbLine
 10
10.1565295999996
 20
57.27377176284681
 30
0.0
 11
10.28331508355982
 21
57.54566410976183
 31
0.0
  0
LINE
  5
320
330
1F
100
AcDbEntity
  8
0
  6
K5LT32784
 62
     7
370
    18
100
AcDbLine
 10
14.50949770096681
 20
66.60874198012833
 30
0.0
 11
14.63628318452702
 21
66.88063432704335
 31
0.0
  0
LINE
  5
321
330
1F
100
AcDbEntity
  8
0
  6
K5LT32784
 62
     7
370
    18
100
AcDbLine
 10
18.86246580193402
 20
75.94371219740985
 30
0.0
 11
18.98925128549423
 21
76.21560454432488
 31
0.0
  0
LINE
  5
322
330
1F
100
AcDbEntity
  8
0
  6
K5LT32784
 62
     7
370
    18
100
AcDbLine
 10
23.21543390290123
 20
85.27868241469139
 30
0.0
 11
23.34221938646144
 21
85.55057476160641
 31
0.0
  0
LINE
  5
323
330
1F
100
AcDbEntity
  8
0
  6
K5LT32784
 62
     7
370
    18
100
AcDbLine
 10
27.56840200386844
 20
94.61365263197291
 30
0.0
 11
27.69518748742865
 21
94.88554497888794
 31
0.0
  0
LINE
  5
324
330
1F
100
AcDbEntity
  8
0
  6
K5LT32784
 62
     7
370
    18
100
AcDbLine
 10
3.385113948122679
 20
54.58343195151249
 30
0.0
 11
3.511899431682891
 21
54.85532429842751
 31
0.0
  0
LINE
  5
325
330
1F
100
AcDbEntity
  8
0
  6
K5LT32784
 62
     7
370
    18
100
AcDbLine
 10
7.738082049089885
 20
63.91840216879401
 30
0.0
 11
7.864867532650097
 21
64.19029451570904
 31
0.0
  0
LINE
  5
326
330
1F
100
AcDbEntity
  8
0
  6
K5LT32784
 62
     7
370
    18
100
AcDbLine
 10
12.09105015005709
 20
73.25337238607554
 30
0.0
 11
12.2178356336173
 21
73.52526473299056
 31
0.0
  0
LINE
  5
327
330
1F
100
AcDbEntity
  8
0
  6
K5LT32784
 62
     7
370
    18
100
AcDbLine
 10
16.4440182510243
 20
82.58834260335706
 30
0.0
 11
16.57080373458451
 21
82.86023495027209
 31
0.0
  0
LINE
  5
328
330
1F
100
AcDbEntity
  8
0
  6
K5LT32784
 62
     7
370
    18
100
AcDbLine
 10
20.7969863519915
 20
91.92331282063859
 30
0.0
 11
20.92377183555171
 21
92.19520516755361
 31
0.0
  0
LINE
  5
329
330
1F
100
AcDbEntity
  8
0
  6
K5LT32784
 62
     7
370
    18
100
AcDbLine
 10
0.9666663216429301
 20
61.22806219539924
 30
0.0
 11
1.093451805203142
 21
61.49995454231426
 31
0.0
  0
LINE
  5
32A
330
1F
100
AcDbEntity
  8
0
  6
K5LT32784
 62
     7
370
    18
100
AcDbLine
 10
5.319634422610137
 20
70.56303241268077
 30
0.0
 11
5.446419906170349
 21
70.8349247595958
 31
0.0
  0
LINE
  5
32B
330
1F
100
AcDbEntity
  8
0
  6
K5LT32784
 62
     7
370
    18
100
AcDbLine
 10
9.672602523577343
 20
79.89800262996229
 30
0.0
 11
9.799388007137555
 21
80.16989497687732
 31
0.0
  0
LINE
  5
32C
330
1F
100
AcDbEntity
  8
0
  6
K5LT32784
 62
     7
370
    18
100
AcDbLine
 10
14.02557062454455
 20
89.23297284724381
 30
0.0
 11
14.15235610810476
 21
89.50486519415884
 31
0.0
  0
LINE
  5
32D
330
1F
100
AcDbEntity
  8
0
  6
K5LT32784
 62
     7
370
    18
100
AcDbLine
 10
18.37853872551176
 20
98.56794306452534
 30
0.0
 11
18.50532420907197
 21
98.83983541144036
 31
0.0
  0
LINE
  5
32E
330
1F
100
AcDbEntity
  8
0
  6
K5LT32784
 62
     7
370
    18
100
AcDbLine
 10
2.901186871700402
 20
77.20766281862795
 30
0.0
 11
3.027972355260614
 21
77.47955516554298
 31
0.0
  0
LINE
  5
32F
330
1F
100
AcDbEntity
  8
0
  6
K5LT32784
 62
     7
370
    18
100
AcDbLine
 10
7.254154972667605
 20
86.54263303590947
 30
0.0
 11
7.380940456227817
 21
86.8145253828245
 31
0.0
  0
LINE
  5
330
330
1F
100
AcDbEntity
  8
0
  6
K5LT32784
 62
     7
370
    18
100
AcDbLine
 10
11.60712307363481
 20
95.877603253191
 30
0.0
 11
11.73390855719502
 21
96.14949560010602
 31
0.0
  0
LINE
  5
331
330
1F
100
AcDbEntity
  8
0
  6
K5LT32784
 62
     7
370
    18
100
AcDbLine
 10
0.4827392452206433
 20
83.85229306251468
 30
0.0
 11
0.6095247287808552
 21
84.1241854094297
 31
0.0
  0
LINE
  5
332
330
1F
100
AcDbEntity
  8
0
  6
K5LT32784
 62
     7
370
    18
100
AcDbLine
 10
4.835707346187842
 20
93.1872632797962
 30
0.0
 11
4.962492829748054
 21
93.45915562671122
 31
0.0
  0
LINE
  5
333
330
1F
100
AcDbEntity
  8
0
  6
K5LT32784
 62
     7
370
    18
100
AcDbLine
 10
2.417259795278035
 20
99.83189368574322
 30
0.0
 11
2.495649057000179
 21
100.0
 31
0.0
  0
LINE
  5
335
330
1F
100
AcDbEntity
  8
0
  6
K5LT32785
 62
     7
370
    18
100
AcDbLine
 10
98.44081361026792
 20
96.25827868681495
 30
0.0
 11
98.31140408771667
 21
96.74124159995948
 31
0.0
  0
LINE
  5
336
330
1F
100
AcDbEntity
  8
0
  6
K5LT32785
 62
     7
370
    18
100
AcDbLine
 10
98.71821502675212
 20
79.76818928577923
 30
0.0
 11
98.58880550420086
 21
80.25115219892376
 31
0.0
  0
LINE
  5
337
330
1F
100
AcDbEntity
  8
0
  6
K5LT32785
 62
     7
370
    18
100
AcDbLine
 10
95.48297696297061
 20
91.84226211439258
 30
0.0
 11
95.35356744041935
 21
92.32522502753712
 31
0.0
  0
LINE
  5
338
330
1F
100
AcDbEntity
  8
0
  6
K5LT32785
 62
     7
370
    18
100
AcDbLine
 10
98.99561644323612
 20
63.27809988474436
 30
0.0
 11
98.86620692068486
 21
63.76106279788889
 31
0.0
  0
LINE
  5
339
330
1F
100
AcDbEntity
  8
0
  6
K5LT32785
 62
     7
370
    18
100
AcDbLine
 10
95.76037837945461
 20
75.3521727133577
 30
0.0
 11
95.63096885690335
 21
75.83513562650224
 31
0.0
  0
LINE
  5
33A
330
1F
100
AcDbEntity
  8
0
  6
K5LT32785
 62
     7
370
    18
100
AcDbLine
 10
92.52514031567308
 20
87.42624554197106
 30
0.0
 11
92.39573079312183
 21
87.90920845511559
 31
0.0
  0
LINE
  5
33B
330
1F
100
AcDbEntity
  8
0
  6
K5LT32785
 62
     7
370
    18
100
AcDbLine
 10
89.28990225189158
 20
99.50031837058441
 30
0.0
 11
89.1604927293403
 21
99.98328128372894
 31
0.0
  0
LINE
  5
33C
330
1F
100
AcDbEntity
  8
0
  6
K5LT32785
 62
     7
370
    18
100
AcDbLine
 10
99.2730178597202
 20
46.7880104837091
 30
0.0
 11
99.14360833716894
 21
47.27097339685363
 31
0.0
  0
LINE
  5
33D
330
1F
100
AcDbEntity
  8
0
  6
K5LT32785
 62
     7
370
    18
100
AcDbLine
 10
96.03777979593869
 20
58.86208331232245
 30
0.0
 11
95.90837027338743
 21
59.34504622546699
 31
0.0
  0
LINE
  5
33E
330
1F
100
AcDbEntity
  8
0
  6
K5LT32785
 62
     7
370
    18
100
AcDbLine
 10
92.80254173215718
 20
70.93615614093581
 30
0.0
 11
92.67313220960592
 21
71.41911905408034
 31
0.0
  0
LINE
  5
33F
330
1F
100
AcDbEntity
  8
0
  6
K5LT32785
 62
     7
370
    18
100
AcDbLine
 10
89.56730366837567
 20
83.01022896954916
 30
0.0
 11
89.43789414582442
 21
83.4931918826937
 31
0.0
  0
LINE
  5
340
330
1F
100
AcDbEntity
  8
0
  6
K5LT32785
 62
     7
370
    18
100
AcDbLine
 10
86.33206560459415
 20
95.08430179816251
 30
0.0
 11
86.20265608204289
 21
95.56726471130705
 31
0.0
  0
LINE
  5
341
330
1F
100
AcDbEntity
  8
0
  6
K5LT32785
 62
     7
370
    18
100
AcDbLine
 10
99.55041927620424
 20
30.29792108267392
 30
0.0
 11
99.42100975365298
 21
30.78088399581846
 31
0.0
  0
LINE
  5
342
330
1F
100
AcDbEntity
  8
0
  6
K5LT32785
 62
     7
370
    18
100
AcDbLine
 10
96.31518121242273
 20
42.37199391128728
 30
0.0
 11
96.18577168987147
 21
42.85495682443181
 31
0.0
  0
LINE
  5
343
330
1F
100
AcDbEntity
  8
0
  6
K5LT32785
 62
     7
370
    18
100
AcDbLine
 10
93.07994314864122
 20
54.44606673990063
 30
0.0
 11
92.95053362608996
 21
54.92902965304516
 31
0.0
  0
LINE
  5
344
330
1F
100
AcDbEntity
  8
0
  6
K5LT32785
 62
     7
370
    18
100
AcDbLine
 10
89.84470508485971
 20
66.52013956851398
 30
0.0
 11
89.71529556230846
 21
67.00310248165852
 31
0.0
  0
LINE
  5
345
330
1F
100
AcDbEntity
  8
0
  6
K5LT32785
 62
     7
370
    18
100
AcDbLine
 10
86.6094670210782
 20
78.59421239712734
 30
0.0
 11
86.48005749852695
 21
79.07717531027187
 31
0.0
  0
LINE
  5
346
330
1F
100
AcDbEntity
  8
0
  6
K5LT32785
 62
     7
370
    18
100
AcDbLine
 10
83.3742289572967
 20
90.6682852257407
 30
0.0
 11
83.24481943474544
 21
91.15124813888524
 31
0.0
  0
LINE
  5
347
330
1F
100
AcDbEntity
  8
0
  6
K5LT32785
 62
     7
370
    18
100
AcDbLine
 10
99.82782069268832
 20
13.80783168163872
 30
0.0
 11
99.69841117013706
 21
14.29079459478326
 31
0.0
  0
LINE
  5
348
330
1F
100
AcDbEntity
  8
0
  6
K5LT32785
 62
     7
370
    18
100
AcDbLine
 10
96.59258262890681
 20
25.88190451025207
 30
0.0
 11
96.46317310635555
 21
26.36486742339661
 31
0.0
  0
LINE
  5
349
330
1F
100
AcDbEntity
  8
0
  6
K5LT32785
 62
     7
370
    18
100
AcDbLine
 10
93.3573445651253
 20
37.95597733886542
 30
0.0
 11
93.22793504257405
 21
38.43894025200996
 31
0.0
  0
LINE
  5
34A
330
1F
100
AcDbEntity
  8
0
  6
K5LT32785
 62
     7
370
    18
100
AcDbLine
 10
90.1221065013438
 20
50.03005016747878
 30
0.0
 11
89.99269697879254
 21
50.51301308062331
 31
0.0
  0
LINE
  5
34B
330
1F
100
AcDbEntity
  8
0
  6
K5LT32785
 62
     7
370
    18
100
AcDbLine
 10
86.88686843756228
 20
62.10412299609213
 30
0.0
 11
86.75745891501103
 21
62.58708590923666
 31
0.0
  0
LINE
  5
34C
330
1F
100
AcDbEntity
  8
0
  6
K5LT32785
 62
     7
370
    18
100
AcDbLine
 10
83.65163037378078
 20
74.17819582470548
 30
0.0
 11
83.52222085122952
 21
74.66115873785002
 31
0.0
  0
LINE
  5
34D
330
1F
100
AcDbEntity
  8
0
  6
K5LT32785
 62
     7
370
    18
100
AcDbLine
 10
80.41639230999927
 20
86.25226865331884
 30
0.0
 11
80.28698278744801
 21
86.73523156646337
 31
0.0
  0
LINE
  5
34E
330
1F
100
AcDbEntity
  8
0
  6
K5LT32785
 62
     7
370
    18
100
AcDbLine
 10
77.18115424621774
 20
98.32634148193219
 30
0.0
 11
77.05174472366649
 21
98.80930439507672
 31
0.0
  0
LINE
  5
34F
330
1F
100
AcDbEntity
  8
0
  6
K5LT32785
 62
     7
370
    18
100
AcDbLine
 10
96.86998404539086
 20
9.391815109216923
 30
0.0
 11
96.74057452283961
 21
9.874778022361458
 31
0.0
  0
LINE
  5
350
330
1F
100
AcDbEntity
  8
0
  6
K5LT32785
 62
     7
370
    18
100
AcDbLine
 10
93.63474598160936
 20
21.46588793783028
 30
0.0
 11
93.5053364590581
 21
21.94885085097481
 31
0.0
  0
LINE
  5
351
330
1F
100
AcDbEntity
  8
0
  6
K5LT32785
 62
     7
370
    18
100
AcDbLine
 10
90.39950791782785
 20
33.53996076644363
 30
0.0
 11
90.27009839527659
 21
34.02292367958817
 31
0.0
  0
LINE
  5
352
330
1F
100
AcDbEntity
  8
0
  6
K5LT32785
 62
     7
370
    18
100
AcDbLine
 10
87.16426985404634
 20
45.61403359505699
 30
0.0
 11
87.03486033149508
 21
46.09699650820152
 31
0.0
  0
LINE
  5
353
330
1F
100
AcDbEntity
  8
0
  6
K5LT32785
 62
     7
370
    18
100
AcDbLine
 10
83.92903179026483
 20
57.68810642367034
 30
0.0
 11
83.79962226771357
 21
58.17106933681487
 31
0.0
  0
LINE
  5
354
330
1F
100
AcDbEntity
  8
0
  6
K5LT32785
 62
     7
370
    18
100
AcDbLine
 10
80.69379372648332
 20
69.7621792522837
 30
0.0
 11
80.56438420393206
 21
70.24514216542823
 31
0.0
  0
LINE
  5
355
330
1F
100
AcDbEntity
  8
0
  6
K5LT32785
 62
     7
370
    18
100
AcDbLine
 10
77.45855566270181
 20
81.83625208089705
 30
0.0
 11
77.32914614015056
 21
82.31921499404159
 31
0.0
  0
LINE
  5
356
330
1F
100
AcDbEntity
  8
0
  6
K5LT32785
 62
     7
370
    18
100
AcDbLine
 10
74.2233175989203
 20
93.91032490951041
 30
0.0
 11
74.09390807636905
 21
94.39328782265494
 31
0.0
  0
LINE
  5
357
330
1F
100
AcDbEntity
  8
0
  6
K5LT32785
 62
     7
370
    18
100
AcDbLine
 10
93.9121473980934
 20
4.975798536795203
 30
0.0
 11
93.78273787554214
 21
5.458761449939737
 31
0.0
  0
LINE
  5
358
330
1F
100
AcDbEntity
  8
0
  6
K5LT32785
 62
     7
370
    18
100
AcDbLine
 10
90.67690933431189
 20
17.04987136540856
 30
0.0
 11
90.54749981176063
 21
17.53283427855309
 31
0.0
  0
LINE
  5
359
330
1F
100
AcDbEntity
  8
0
  6
K5LT32785
 62
     7
370
    18
100
AcDbLine
 10
87.44167127053038
 20
29.12394419402191
 30
0.0
 11
87.31226174797912
 21
29.60690710716644
 31
0.0
  0
LINE
  5
35A
330
1F
100
AcDbEntity
  8
0
  6
K5LT32785
 62
     7
370
    18
100
AcDbLine
 10
84.20643320674887
 20
41.19801702263526
 30
0.0
 11
84.07702368419761
 21
41.6809799357798
 31
0.0
  0
LINE
  5
35B
330
1F
100
AcDbEntity
  8
0
  6
K5LT32785
 62
     7
370
    18
100
AcDbLine
 10
80.97119514296736
 20
53.27208985124862
 30
0.0
 11
80.8417856204161
 21
53.75505276439315
 31
0.0
  0
LINE
  5
35C
330
1F
100
AcDbEntity
  8
0
  6
K5LT32785
 62
     7
370
    18
100
AcDbLine
 10
77.73595707918585
 20
65.34616267986198
 30
0.0
 11
77.6065475566346
 21
65.82912559300651
 31
0.0
  0
LINE
  5
35D
330
1F
100
AcDbEntity
  8
0
  6
K5LT32785
 62
     7
370
    18
100
AcDbLine
 10
74.50071901540434
 20
77.42023550847533
 30
0.0
 11
74.37130949285309
 21
77.90319842161986
 31
0.0
  0
LINE
  5
35E
330
1F
100
AcDbEntity
  8
0
  6
K5LT32785
 62
     7
370
    18
100
AcDbLine
 10
71.26548095162282
 20
89.49430833708868
 30
0.0
 11
71.13607142907156
 21
89.97727125023322
 31
0.0
  0
LINE
  5
35F
330
1F
100
AcDbEntity
  8
0
  6
K5LT32785
 62
     7
370
    18
100
AcDbLine
 10
90.95431075079597
 20
0.559781964373313
 30
0.0
 11
90.82490122824471
 21
1.042744877517847
 31
0.0
  0
LINE
  5
360
330
1F
100
AcDbEntity
  8
0
  6
K5LT32785
 62
     7
370
    18
100
AcDbLine
 10
87.71907268701446
 20
12.63385479298667
 30
0.0
 11
87.5896631644632
 21
13.1168177061312
 31
0.0
  0
LINE
  5
361
330
1F
100
AcDbEntity
  8
0
  6
K5LT32785
 62
     7
370
    18
100
AcDbLine
 10
84.48383462323295
 20
24.70792762160003
 30
0.0
 11
84.3544251006817
 21
25.19089053474456
 31
0.0
  0
LINE
  5
362
330
1F
100
AcDbEntity
  8
0
  6
K5LT32785
 62
     7
370
    18
100
AcDbLine
 10
81.24859655945144
 20
36.78200045021338
 30
0.0
 11
81.11918703690019
 21
37.26496336335791
 31
0.0
  0
LINE
  5
363
330
1F
100
AcDbEntity
  8
0
  6
K5LT32785
 62
     7
370
    18
100
AcDbLine
 10
78.01335849566993
 20
48.85607327882673
 30
0.0
 11
77.88394897311868
 21
49.33903619197127
 31
0.0
  0
LINE
  5
364
330
1F
100
AcDbEntity
  8
0
  6
K5LT32785
 62
     7
370
    18
100
AcDbLine
 10
74.77812043188842
 20
60.93014610744009
 30
0.0
 11
74.64871090933717
 21
61.41310902058462
 31
0.0
  0
LINE
  5
365
330
1F
100
AcDbEntity
  8
0
  6
K5LT32785
 62
     7
370
    18
100
AcDbLine
 10
71.54288236810692
 20
73.00421893605343
 30
0.0
 11
71.41347284555566
 21
73.48718184919797
 31
0.0
  0
LINE
  5
366
330
1F
100
AcDbEntity
  8
0
  6
K5LT32785
 62
     7
370
    18
100
AcDbLine
 10
68.3076443043254
 20
85.07829176466679
 30
0.0
 11
68.17823478177414
 21
85.56125467781132
 31
0.0
  0
LINE
  5
367
330
1F
100
AcDbEntity
  8
0
  6
K5LT32785
 62
     7
370
    18
100
AcDbLine
 10
65.07240624054388
 20
97.15236459328015
 30
0.0
 11
64.94299671799263
 21
97.63532750642469
 31
0.0
  0
LINE
  5
368
330
1F
100
AcDbEntity
  8
0
  6
K5LT32785
 62
     7
370
    18
100
AcDbLine
 10
84.76123603971698
 20
8.217838220564895
 30
0.0
 11
84.63182651716572
 21
8.70080113370943
 31
0.0
  0
LINE
  5
369
330
1F
100
AcDbEntity
  8
0
  6
K5LT32785
 62
     7
370
    18
100
AcDbLine
 10
81.52599797593547
 20
20.29191104917825
 30
0.0
 11
81.39658845338421
 21
20.77487396232278
 31
0.0
  0
LINE
  5
36A
330
1F
100
AcDbEntity
  8
0
  6
K5LT32785
 62
     7
370
    18
100
AcDbLine
 10
78.29075991215396
 20
32.3659838777916
 30
0.0
 11
78.1613503896027
 21
32.84894679093613
 31
0.0
  0
LINE
  5
36B
330
1F
100
AcDbEntity
  8
0
  6
K5LT32785
 62
     7
370
    18
100
AcDbLine
 10
75.05552184837245
 20
44.44005670640495
 30
0.0
 11
74.9261123258212
 21
44.92301961954949
 31
0.0
  0
LINE
  5
36C
330
1F
100
AcDbEntity
  8
0
  6
K5LT32785
 62
     7
370
    18
100
AcDbLine
 10
71.82028378459094
 20
56.51412953501831
 30
0.0
 11
71.69087426203969
 21
56.99709244816284
 31
0.0
  0
LINE
  5
36D
330
1F
100
AcDbEntity
  8
0
  6
K5LT32785
 62
     7
370
    18
100
AcDbLine
 10
68.58504572080943
 20
68.58820236363167
 30
0.0
 11
68.45563619825818
 21
69.0711652767762
 31
0.0
  0
LINE
  5
36E
330
1F
100
AcDbEntity
  8
0
  6
K5LT32785
 62
     7
370
    18
100
AcDbLine
 10
65.34980765702792
 20
80.66227519224502
 30
0.0
 11
65.22039813447667
 21
81.14523810538955
 31
0.0
  0
LINE
  5
36F
330
1F
100
AcDbEntity
  8
0
  6
K5LT32785
 62
     7
370
    18
100
AcDbLine
 10
62.1145695932464
 20
92.73634802085837
 30
0.0
 11
61.98516007069514
 21
93.2193109340029
 31
0.0
  0
LINE
  5
370
330
1F
100
AcDbEntity
  8
0
  6
K5LT32785
 62
     7
370
    18
100
AcDbLine
 10
81.80339939241954
 20
3.80182164814306
 30
0.0
 11
81.67398986986828
 21
4.284784561287594
 31
0.0
  0
LINE
  5
371
330
1F
100
AcDbEntity
  8
0
  6
K5LT32785
 62
     7
370
    18
100
AcDbLine
 10
78.56816132863803
 20
15.87589447675641
 30
0.0
 11
78.43875180608677
 21
16.35885738990095
 31
0.0
  0
LINE
  5
372
330
1F
100
AcDbEntity
  8
0
  6
K5LT32785
 62
     7
370
    18
100
AcDbLine
 10
75.33292326485652
 20
27.94996730536977
 30
0.0
 11
75.20351374230526
 21
28.4329302185143
 31
0.0
  0
LINE
  5
373
330
1F
100
AcDbEntity
  8
0
  6
K5LT32785
 62
     7
370
    18
100
AcDbLine
 10
72.09768520107501
 20
40.02404013398312
 30
0.0
 11
71.96827567852375
 21
40.50700304712765
 31
0.0
  0
LINE
  5
374
330
1F
100
AcDbEntity
  8
0
  6
K5LT32785
 62
     7
370
    18
100
AcDbLine
 10
68.8624471372935
 20
52.09811296259647
 30
0.0
 11
68.73303761474224
 21
52.58107587574101
 31
0.0
  0
LINE
  5
375
330
1F
100
AcDbEntity
  8
0
  6
K5LT32785
 62
     7
370
    18
100
AcDbLine
 10
65.62720907351199
 20
64.17218579120983
 30
0.0
 11
65.49779955096074
 21
64.65514870435436
 31
0.0
  0
LINE
  5
376
330
1F
100
AcDbEntity
  8
0
  6
K5LT32785
 62
     7
370
    18
100
AcDbLine
 10
62.39197100973048
 20
76.24625861982318
 30
0.0
 11
62.26256148717922
 21
76.72922153296771
 31
0.0
  0
LINE
  5
377
330
1F
100
AcDbEntity
  8
0
  6
K5LT32785
 62
     7
370
    18
100
AcDbLine
 10
59.15673294594897
 20
88.32033144843653
 30
0.0
 11
59.0273234233977
 21
88.80329436158107
 31
0.0
  0
LINE
  5
378
330
1F
100
AcDbEntity
  8
0
  6
K5LT32785
 62
     7
370
    18
100
AcDbLine
 10
75.61032468134057
 20
11.45987790433458
 30
0.0
 11
75.48091515878932
 21
11.94284081747912
 31
0.0
  0
LINE
  5
379
330
1F
100
AcDbEntity
  8
0
  6
K5LT32785
 62
     7
370
    18
100
AcDbLine
 10
72.37508661755906
 20
23.53395073294794
 30
0.0
 11
72.2456770950078
 21
24.01691364609247
 31
0.0
  0
LINE
  5
37A
330
1F
100
AcDbEntity
  8
0
  6
K5LT32785
 62
     7
370
    18
100
AcDbLine
 10
69.13984855377755
 20
35.60802356156129
 30
0.0
 11
69.0104390312263
 21
36.09098647470582
 31
0.0
  0
LINE
  5
37B
330
1F
100
AcDbEntity
  8
0
  6
K5LT32785
 62
     7
370
    18
100
AcDbLine
 10
65.90461048999605
 20
47.68209639017464
 30
0.0
 11
65.77520096744479
 21
48.16505930331918
 31
0.0
  0
LINE
  5
37C
330
1F
100
AcDbEntity
  8
0
  6
K5LT32785
 62
     7
370
    18
100
AcDbLine
 10
62.66937242621454
 20
59.756169218788
 30
0.0
 11
62.53996290366327
 21
60.23913213193253
 31
0.0
  0
LINE
  5
37D
330
1F
100
AcDbEntity
  8
0
  6
K5LT32785
 62
     7
370
    18
100
AcDbLine
 10
59.43413436243302
 20
71.83024204740136
 30
0.0
 11
59.30472483988176
 21
72.31320496054589
 31
0.0
  0
LINE
  5
37E
330
1F
100
AcDbEntity
  8
0
  6
K5LT32785
 62
     7
370
    18
100
AcDbLine
 10
56.1988962986515
 20
83.90431487601471
 30
0.0
 11
56.06948677610024
 21
84.38727778915924
 31
0.0
  0
LINE
  5
37F
330
1F
100
AcDbEntity
  8
0
  6
K5LT32785
 62
     7
370
    18
100
AcDbLine
 10
52.96365823487
 20
95.97838770462806
 30
0.0
 11
52.83424871231873
 21
96.4613506177726
 31
0.0
  0
LINE
  5
380
330
1F
100
AcDbEntity
  8
0
  6
K5LT32785
 62
     7
370
    18
100
AcDbLine
 10
72.65248803404315
 20
7.043861331912728
 30
0.0
 11
72.52307851149189
 21
7.526824245057262
 31
0.0
  0
LINE
  5
381
330
1F
100
AcDbEntity
  8
0
  6
K5LT32785
 62
     7
370
    18
100
AcDbLine
 10
69.41724997026164
 20
19.11793416052608
 30
0.0
 11
69.28784044771038
 21
19.60089707367062
 31
0.0
  0
LINE
  5
382
330
1F
100
AcDbEntity
  8
0
  6
K5LT32785
 62
     7
370
    18
100
AcDbLine
 10
66.18201190648013
 20
31.19200698913944
 30
0.0
 11
66.05260238392887
 21
31.67496990228397
 31
0.0
  0
LINE
  5
383
330
1F
100
AcDbEntity
  8
0
  6
K5LT32785
 62
     7
370
    18
100
AcDbLine
 10
62.94677384269862
 20
43.26607981775279
 30
0.0
 11
62.81736432014736
 21
43.74904273089732
 31
0.0
  0
LINE
  5
384
330
1F
100
AcDbEntity
  8
0
  6
K5LT32785
 62
     7
370
    18
100
AcDbLine
 10
59.7115357789171
 20
55.34015264636614
 30
0.0
 11
59.58212625636584
 21
55.82311555951068
 31
0.0
  0
LINE
  5
385
330
1F
100
AcDbEntity
  8
0
  6
K5LT32785
 62
     7
370
    18
100
AcDbLine
 10
56.47629771513559
 20
67.4142254749795
 30
0.0
 11
56.34688819258432
 21
67.89718838812404
 31
0.0
  0
LINE
  5
386
330
1F
100
AcDbEntity
  8
0
  6
K5LT32785
 62
     7
370
    18
100
AcDbLine
 10
53.24105965135408
 20
79.48829830359286
 30
0.0
 11
53.11165012880281
 21
79.97126121673739
 31
0.0
  0
LINE
  5
387
330
1F
100
AcDbEntity
  8
0
  6
K5LT32785
 62
     7
370
    18
100
AcDbLine
 10
50.00582158757257
 20
91.56237113220621
 30
0.0
 11
49.87641206502131
 21
92.04533404535074
 31
0.0
  0
LINE
  5
388
330
1F
100
AcDbEntity
  8
0
  6
K5LT32785
 62
     7
370
    18
100
AcDbLine
 10
69.69465138674569
 20
2.62784475949092
 30
0.0
 11
69.56524186419443
 21
3.110807672635454
 31
0.0
  0
LINE
  5
389
330
1F
100
AcDbEntity
  8
0
  6
K5LT32785
 62
     7
370
    18
100
AcDbLine
 10
66.45941332296418
 20
14.70191758810427
 30
0.0
 11
66.33000380041292
 21
15.18488050124881
 31
0.0
  0
LINE
  5
38A
330
1F
100
AcDbEntity
  8
0
  6
K5LT32785
 62
     7
370
    18
100
AcDbLine
 10
63.22417525918267
 20
26.77599041671763
 30
0.0
 11
63.09476573663141
 21
27.25895332986216
 31
0.0
  0
LINE
  5
38B
330
1F
100
AcDbEntity
  8
0
  6
K5LT32785
 62
     7
370
    18
100
AcDbLine
 10
59.98893719540116
 20
38.85006324533099
 30
0.0
 11
59.85952767284989
 21
39.33302615847552
 31
0.0
  0
LINE
  5
38C
330
1F
100
AcDbEntity
  8
0
  6
K5LT32785
 62
     7
370
    18
100
AcDbLine
 10
56.75369913161964
 20
50.92413607394434
 30
0.0
 11
56.62428960906838
 21
51.40709898708887
 31
0.0
  0
LINE
  5
38D
330
1F
100
AcDbEntity
  8
0
  6
K5LT32785
 62
     7
370
    18
100
AcDbLine
 10
53.51846106783813
 20
62.99820890255769
 30
0.0
 11
53.38905154528687
 21
63.48117181570223
 31
0.0
  0
LINE
  5
38E
330
1F
100
AcDbEntity
  8
0
  6
K5LT32785
 62
     7
370
    18
100
AcDbLine
 10
50.28322300405662
 20
75.07228173117105
 30
0.0
 11
50.15381348150535
 21
75.55524464431558
 31
0.0
  0
LINE
  5
38F
330
1F
100
AcDbEntity
  8
0
  6
K5LT32785
 62
     7
370
    18
100
AcDbLine
 10
47.04798494027511
 20
87.1463545597844
 30
0.0
 11
46.91857541772384
 21
87.62931747292893
 31
0.0
  0
LINE
  5
390
330
1F
100
AcDbEntity
  8
0
  6
K5LT32785
 62
     7
370
    18
100
AcDbLine
 10
43.8127468764936
 20
99.22042738839775
 30
0.0
 11
43.68333735394234
 21
99.70339030154229
 31
0.0
  0
LINE
  5
391
330
1F
100
AcDbEntity
  8
0
  6
K5LT32785
 62
     7
370
    18
100
AcDbLine
 10
63.50157667566674
 20
10.28590101568242
 30
0.0
 11
63.37216715311548
 21
10.76886392882695
 31
0.0
  0
LINE
  5
392
330
1F
100
AcDbEntity
  8
0
  6
K5LT32785
 62
     7
370
    18
100
AcDbLine
 10
60.26633861188522
 20
22.35997384429577
 30
0.0
 11
60.13692908933396
 21
22.84293675744031
 31
0.0
  0
LINE
  5
393
330
1F
100
AcDbEntity
  8
0
  6
K5LT32785
 62
     7
370
    18
100
AcDbLine
 10
57.03110054810371
 20
34.43404667290913
 30
0.0
 11
56.90169102555245
 21
34.91700958605366
 31
0.0
  0
LINE
  5
394
330
1F
100
AcDbEntity
  8
0
  6
K5LT32785
 62
     7
370
    18
100
AcDbLine
 10
53.7958624843222
 20
46.50811950152249
 30
0.0
 11
53.66645296177094
 21
46.99108241466702
 31
0.0
  0
LINE
  5
395
330
1F
100
AcDbEntity
  8
0
  6
K5LT32785
 62
     7
370
    18
100
AcDbLine
 10
50.56062442054069
 20
58.58219233013584
 30
0.0
 11
50.43121489798943
 21
59.06515524328037
 31
0.0
  0
LINE
  5
396
330
1F
100
AcDbEntity
  8
0
  6
K5LT32785
 62
     7
370
    18
100
AcDbLine
 10
47.32538635675918
 20
70.65626515874919
 30
0.0
 11
47.19597683420792
 21
71.13922807189373
 31
0.0
  0
LINE
  5
397
330
1F
100
AcDbEntity
  8
0
  6
K5LT32785
 62
     7
370
    18
100
AcDbLine
 10
44.09014829297767
 20
82.73033798736255
 30
0.0
 11
43.96073877042641
 21
83.21330090050708
 31
0.0
  0
LINE
  5
398
330
1F
100
AcDbEntity
  8
0
  6
K5LT32785
 62
     7
370
    18
100
AcDbLine
 10
40.85491022919616
 20
94.8044108159759
 30
0.0
 11
40.7255007066449
 21
95.28737372912043
 31
0.0
  0
LINE
  5
399
330
1F
100
AcDbEntity
  8
0
  6
K5LT32785
 62
     7
370
    18
100
AcDbLine
 10
60.54374002836928
 20
5.869884443260627
 30
0.0
 11
60.41433050581801
 21
6.352847356405161
 31
0.0
  0
LINE
  5
39A
330
1F
100
AcDbEntity
  8
0
  6
K5LT32785
 62
     7
370
    18
100
AcDbLine
 10
57.30850196458776
 20
17.94395727187398
 30
0.0
 11
57.1790924420365
 21
18.42692018501851
 31
0.0
  0
LINE
  5
39B
330
1F
100
AcDbEntity
  8
0
  6
K5LT32785
 62
     7
370
    18
100
AcDbLine
 10
54.07326390080625
 20
30.01803010048733
 30
0.0
 11
53.94385437825499
 21
30.50099301363187
 31
0.0
  0
LINE
  5
39C
330
1F
100
AcDbEntity
  8
0
  6
K5LT32785
 62
     7
370
    18
100
AcDbLine
 10
50.83802583702474
 20
42.09210292910069
 30
0.0
 11
50.70861631447348
 21
42.57506584224522
 31
0.0
  0
LINE
  5
39D
330
1F
100
AcDbEntity
  8
0
  6
K5LT32785
 62
     7
370
    18
100
AcDbLine
 10
47.60278777324324
 20
54.16617575771404
 30
0.0
 11
47.47337825069197
 21
54.64913867085858
 31
0.0
  0
LINE
  5
39E
330
1F
100
AcDbEntity
  8
0
  6
K5LT32785
 62
     7
370
    18
100
AcDbLine
 10
44.36754970946172
 20
66.2402485863274
 30
0.0
 11
44.23814018691046
 21
66.72321149947193
 31
0.0
  0
LINE
  5
39F
330
1F
100
AcDbEntity
  8
0
  6
K5LT32785
 62
     7
370
    18
100
AcDbLine
 10
41.13231164568021
 20
78.31432141494075
 30
0.0
 11
41.00290212312895
 21
78.79728432808528
 31
0.0
  0
LINE
  5
3A0
330
1F
100
AcDbEntity
  8
0
  6
K5LT32785
 62
     7
370
    18
100
AcDbLine
 10
37.8970735818987
 20
90.3883942435541
 30
0.0
 11
37.76766405934744
 21
90.87135715669864
 31
0.0
  0
LINE
  5
3A1
330
1F
100
AcDbEntity
  8
0
  6
K5LT32785
 62
     7
370
    18
100
AcDbLine
 10
57.58590338107185
 20
1.453867870838772
 30
0.0
 11
57.45649385852059
 21
1.936830783983306
 31
0.0
  0
LINE
  5
3A2
330
1F
100
AcDbEntity
  8
0
  6
K5LT32785
 62
     7
370
    18
100
AcDbLine
 10
54.35066531729034
 20
13.52794069945212
 30
0.0
 11
54.22125579473907
 21
14.01090361259666
 31
0.0
  0
LINE
  5
3A3
330
1F
100
AcDbEntity
  8
0
  6
K5LT32785
 62
     7
370
    18
100
AcDbLine
 10
51.11542725350882
 20
25.60201352806548
 30
0.0
 11
50.98601773095756
 21
26.08497644121001
 31
0.0
  0
LINE
  5
3A4
330
1F
100
AcDbEntity
  8
0
  6
K5LT32785
 62
     7
370
    18
100
AcDbLine
 10
47.8801891897273
 20
37.67608635667883
 30
0.0
 11
47.75077966717604
 21
38.15904926982336
 31
0.0
  0
LINE
  5
3A5
330
1F
100
AcDbEntity
  8
0
  6
K5LT32785
 62
     7
370
    18
100
AcDbLine
 10
44.64495112594579
 20
49.75015918529218
 30
0.0
 11
44.51554160339453
 21
50.23312209843672
 31
0.0
  0
LINE
  5
3A6
330
1F
100
AcDbEntity
  8
0
  6
K5LT32785
 62
     7
370
    18
100
AcDbLine
 10
41.40971306216429
 20
61.82423201390554
 30
0.0
 11
41.28030353961302
 21
62.30719492705007
 31
0.0
  0
LINE
  5
3A7
330
1F
100
AcDbEntity
  8
0
  6
K5LT32785
 62
     7
370
    18
100
AcDbLine
 10
38.17447499838278
 20
73.8983048425189
 30
0.0
 11
38.04506547583151
 21
74.38126775566343
 31
0.0
  0
LINE
  5
3A8
330
1F
100
AcDbEntity
  8
0
  6
K5LT32785
 62
     7
370
    18
100
AcDbLine
 10
34.93923693460127
 20
85.97237767113225
 30
0.0
 11
34.80982741205001
 21
86.45534058427678
 31
0.0
  0
LINE
  5
3A9
330
1F
100
AcDbEntity
  8
0
  6
K5LT32785
 62
     7
370
    18
100
AcDbLine
 10
31.70399887081976
 20
98.0464504997456
 30
0.0
 11
31.5745893482685
 21
98.52941341289014
 31
0.0
  0
LINE
  5
3AA
330
1F
100
AcDbEntity
  8
0
  6
K5LT32785
 62
     7
370
    18
100
AcDbLine
 10
51.39282866999288
 20
9.111924127030292
 30
0.0
 11
51.26341914744162
 21
9.594887040174827
 31
0.0
  0
LINE
  5
3AB
330
1F
100
AcDbEntity
  8
0
  6
K5LT32785
 62
     7
370
    18
100
AcDbLine
 10
48.15759060621136
 20
21.18599695564365
 30
0.0
 11
48.0281810836601
 21
21.66895986878818
 31
0.0
  0
LINE
  5
3AC
330
1F
100
AcDbEntity
  8
0
  6
K5LT32785
 62
     7
370
    18
100
AcDbLine
 10
44.92235254242985
 20
33.260069784257
 30
0.0
 11
44.79294301987859
 21
33.74303269740153
 31
0.0
  0
LINE
  5
3AD
330
1F
100
AcDbEntity
  8
0
  6
K5LT32785
 62
     7
370
    18
100
AcDbLine
 10
41.68711447864834
 20
45.33414261287035
 30
0.0
 11
41.55770495609708
 21
45.81710552601488
 31
0.0
  0
LINE
  5
3AE
330
1F
100
AcDbEntity
  8
0
  6
K5LT32785
 62
     7
370
    18
100
AcDbLine
 10
38.45187641486683
 20
57.4082154414837
 30
0.0
 11
38.32246689231557
 21
57.89117835462824
 31
0.0
  0
LINE
  5
3AF
330
1F
100
AcDbEntity
  8
0
  6
K5LT32785
 62
     7
370
    18
100
AcDbLine
 10
35.21663835108532
 20
69.48228827009706
 30
0.0
 11
35.08722882853405
 21
69.96525118324159
 31
0.0
  0
LINE
  5
3B0
330
1F
100
AcDbEntity
  8
0
  6
K5LT32785
 62
     7
370
    18
100
AcDbLine
 10
31.98140028730381
 20
81.55636109871041
 30
0.0
 11
31.85199076475255
 21
82.03932401185494
 31
0.0
  0
LINE
  5
3B1
330
1F
100
AcDbEntity
  8
0
  6
K5LT32785
 62
     7
370
    18
100
AcDbLine
 10
28.7461622235223
 20
93.63043392732376
 30
0.0
 11
28.61675270097104
 21
94.1133968404683
 31
0.0
  0
LINE
  5
3B2
330
1F
100
AcDbEntity
  8
0
  6
K5LT32785
 62
     7
370
    18
100
AcDbLine
 10
48.43499202269543
 20
4.695907554608476
 30
0.0
 11
48.30558250014416
 21
5.17887046775301
 31
0.0
  0
LINE
  5
3B3
330
1F
100
AcDbEntity
  8
0
  6
K5LT32785
 62
     7
370
    18
100
AcDbLine
 10
45.19975395891392
 20
16.76998038322183
 30
0.0
 11
45.07034443636265
 21
17.25294329636636
 31
0.0
  0
LINE
  5
3B4
330
1F
100
AcDbEntity
  8
0
  6
K5LT32785
 62
     7
370
    18
100
AcDbLine
 10
41.9645158951324
 20
28.84405321183518
 30
0.0
 11
41.83510637258114
 21
29.32701612497972
 31
0.0
  0
LINE
  5
3B5
330
1F
100
AcDbEntity
  8
0
  6
K5LT32785
 62
     7
370
    18
100
AcDbLine
 10
38.72927783135089
 20
40.91812604044854
 30
0.0
 11
38.59986830879963
 21
41.40108895359307
 31
0.0
  0
LINE
  5
3B6
330
1F
100
AcDbEntity
  8
0
  6
K5LT32785
 62
     7
370
    18
100
AcDbLine
 10
35.49403976756938
 20
52.99219886906189
 30
0.0
 11
35.36463024501812
 21
53.47516178220643
 31
0.0
  0
LINE
  5
3B7
330
1F
100
AcDbEntity
  8
0
  6
K5LT32785
 62
     7
370
    18
100
AcDbLine
 10
32.25880170378787
 20
65.06627169767525
 30
0.0
 11
32.12939218123661
 21
65.54923461081978
 31
0.0
  0
LINE
  5
3B8
330
1F
100
AcDbEntity
  8
0
  6
K5LT32785
 62
     7
370
    18
100
AcDbLine
 10
29.02356364000636
 20
77.1403445262886
 30
0.0
 11
28.8941541174551
 21
77.62330743943313
 31
0.0
  0
LINE
  5
3B9
330
1F
100
AcDbEntity
  8
0
  6
K5LT32785
 62
     7
370
    18
100
AcDbLine
 10
25.78832557622485
 20
89.21441735490195
 30
0.0
 11
25.65891605367359
 21
89.69738026804649
 31
0.0
  0
LINE
  5
3BA
330
1F
100
AcDbEntity
  8
0
  6
K5LT32785
 62
     7
370
    18
100
AcDbLine
 10
45.47715537539798
 20
0.2798909821866565
 30
0.0
 11
45.34774585284672
 21
0.7628538953311907
 31
0.0
  0
LINE
  5
3BB
330
1F
100
AcDbEntity
  8
0
  6
K5LT32785
 62
     7
370
    18
100
AcDbLine
 10
42.24191731161647
 20
12.35396381080001
 30
0.0
 11
42.11250778906521
 21
12.83692672394455
 31
0.0
  0
LINE
  5
3BC
330
1F
100
AcDbEntity
  8
0
  6
K5LT32785
 62
     7
370
    18
100
AcDbLine
 10
39.00667924783495
 20
24.42803663941337
 30
0.0
 11
38.87726972528369
 21
24.9109995525579
 31
0.0
  0
LINE
  5
3BD
330
1F
100
AcDbEntity
  8
0
  6
K5LT32785
 62
     7
370
    18
100
AcDbLine
 10
35.77144118405344
 20
36.50210946802672
 30
0.0
 11
35.64203166150217
 21
36.98507238117126
 31
0.0
  0
LINE
  5
3BE
330
1F
100
AcDbEntity
  8
0
  6
K5LT32785
 62
     7
370
    18
100
AcDbLine
 10
32.53620312027193
 20
48.57618229664008
 30
0.0
 11
32.40679359772066
 21
49.05914520978461
 31
0.0
  0
LINE
  5
3BF
330
1F
100
AcDbEntity
  8
0
  6
K5LT32785
 62
     7
370
    18
100
AcDbLine
 10
29.30096505649042
 20
60.65025512525343
 30
0.0
 11
29.17155553393916
 21
61.13321803839796
 31
0.0
  0
LINE
  5
3C0
330
1F
100
AcDbEntity
  8
0
  6
K5LT32785
 62
     7
370
    18
100
AcDbLine
 10
26.06572699270891
 20
72.72432795386678
 30
0.0
 11
25.93631747015765
 21
73.20729086701131
 31
0.0
  0
LINE
  5
3C1
330
1F
100
AcDbEntity
  8
0
  6
K5LT32785
 62
     7
370
    18
100
AcDbLine
 10
22.8304889289274
 20
84.79840078248013
 30
0.0
 11
22.70107940637614
 21
85.28136369562466
 31
0.0
  0
LINE
  5
3C2
330
1F
100
AcDbEntity
  8
0
  6
K5LT32785
 62
     7
370
    18
100
AcDbLine
 10
19.59525086514589
 20
96.8724736110935
 30
0.0
 11
19.46584134259463
 21
97.35543652423803
 31
0.0
  0
LINE
  5
3C3
330
1F
100
AcDbEntity
  8
0
  6
K5LT32785
 62
     7
370
    18
100
AcDbLine
 10
39.28408066431901
 20
7.937947238378205
 30
0.0
 11
39.15467114176775
 21
8.42091015152274
 31
0.0
  0
LINE
  5
3C4
330
1F
100
AcDbEntity
  8
0
  6
K5LT32785
 62
     7
370
    18
100
AcDbLine
 10
36.0488426005375
 20
20.01202006699156
 30
0.0
 11
35.91943307798623
 21
20.49498298013609
 31
0.0
  0
LINE
  5
3C5
330
1F
100
AcDbEntity
  8
0
  6
K5LT32785
 62
     7
370
    18
100
AcDbLine
 10
32.81360453675598
 20
32.08609289560491
 30
0.0
 11
32.68419501420472
 21
32.56905580874945
 31
0.0
  0
LINE
  5
3C6
330
1F
100
AcDbEntity
  8
0
  6
K5LT32785
 62
     7
370
    18
100
AcDbLine
 10
29.57836647297447
 20
44.16016572421826
 30
0.0
 11
29.44895695042321
 21
44.64312863736279
 31
0.0
  0
LINE
  5
3C7
330
1F
100
AcDbEntity
  8
0
  6
K5LT32785
 62
     7
370
    18
100
AcDbLine
 10
26.34312840919296
 20
56.23423855283161
 30
0.0
 11
26.2137188866417
 21
56.71720146597615
 31
0.0
  0
LINE
  5
3C8
330
1F
100
AcDbEntity
  8
0
  6
K5LT32785
 62
     7
370
    18
100
AcDbLine
 10
23.10789034541145
 20
68.30831138144497
 30
0.0
 11
22.97848082286019
 21
68.7912742945895
 31
0.0
  0
LINE
  5
3C9
330
1F
100
AcDbEntity
  8
0
  6
K5LT32785
 62
     7
370
    18
100
AcDbLine
 10
19.87265228162994
 20
80.38238421005832
 30
0.0
 11
19.74324275907868
 21
80.86534712320285
 31
0.0
  0
LINE
  5
3CA
330
1F
100
AcDbEntity
  8
0
  6
K5LT32785
 62
     7
370
    18
100
AcDbLine
 10
16.63741421784843
 20
92.45645703867167
 30
0.0
 11
16.50800469529717
 21
92.9394199518162
 31
0.0
  0
LINE
  5
3CB
330
1F
100
AcDbEntity
  8
0
  6
K5LT32785
 62
     7
370
    18
100
AcDbLine
 10
36.32624401702157
 20
3.52193066595635
 30
0.0
 11
36.19683449447031
 21
4.004893579100884
 31
0.0
  0
LINE
  5
3CC
330
1F
100
AcDbEntity
  8
0
  6
K5LT32785
 62
     7
370
    18
100
AcDbLine
 10
33.09100595324006
 20
15.5960034945697
 30
0.0
 11
32.96159643068879
 21
16.07896640771424
 31
0.0
  0
LINE
  5
3CD
330
1F
100
AcDbEntity
  8
0
  6
K5LT32785
 62
     7
370
    18
100
AcDbLine
 10
29.85576788945854
 20
27.67007632318306
 30
0.0
 11
29.72635836690728
 21
28.15303923632759
 31
0.0
  0
LINE
  5
3CE
330
1F
100
AcDbEntity
  8
0
  6
K5LT32785
 62
     7
370
    18
100
AcDbLine
 10
26.62052982567704
 20
39.74414915179641
 30
0.0
 11
26.49112030312578
 21
40.22711206494094
 31
0.0
  0
LINE
  5
3CF
330
1F
100
AcDbEntity
  8
0
  6
K5LT32785
 62
     7
370
    18
100
AcDbLine
 10
23.38529176189553
 20
51.81822198040976
 30
0.0
 11
23.25588223934427
 21
52.30118489355429
 31
0.0
  0
LINE
  5
3D0
330
1F
100
AcDbEntity
  8
0
  6
K5LT32785
 62
     7
370
    18
100
AcDbLine
 10
20.15005369811402
 20
63.89229480902311
 30
0.0
 11
20.02064417556276
 21
64.37525772216765
 31
0.0
  0
LINE
  5
3D1
330
1F
100
AcDbEntity
  8
0
  6
K5LT32785
 62
     7
370
    18
100
AcDbLine
 10
16.91481563433251
 20
75.96636763763647
 30
0.0
 11
16.78540611178125
 21
76.449330550781
 31
0.0
  0
LINE
  5
3D2
330
1F
100
AcDbEntity
  8
0
  6
K5LT32785
 62
     7
370
    18
100
AcDbLine
 10
13.679577570551
 20
88.04044046624982
 30
0.0
 11
13.55016804799974
 21
88.52340337939435
 31
0.0
  0
LINE
  5
3D3
330
1F
100
AcDbEntity
  8
0
  6
K5LT32785
 62
     7
370
    18
100
AcDbLine
 10
30.13316930594261
 20
11.17998692214788
 30
0.0
 11
30.00375978339135
 21
11.66294983529242
 31
0.0
  0
LINE
  5
3D4
330
1F
100
AcDbEntity
  8
0
  6
K5LT32785
 62
     7
370
    18
100
AcDbLine
 10
26.8979312421611
 20
23.25405975076124
 30
0.0
 11
26.76852171960984
 21
23.73702266390577
 31
0.0
  0
LINE
  5
3D5
330
1F
100
AcDbEntity
  8
0
  6
K5LT32785
 62
     7
370
    18
100
AcDbLine
 10
23.66269317837959
 20
35.32813257937459
 30
0.0
 11
23.53328365582833
 21
35.81109549251912
 31
0.0
  0
LINE
  5
3D6
330
1F
100
AcDbEntity
  8
0
  6
K5LT32785
 62
     7
370
    18
100
AcDbLine
 10
20.42745511459808
 20
47.40220540798794
 30
0.0
 11
20.29804559204682
 21
47.88516832113247
 31
0.0
  0
LINE
  5
3D7
330
1F
100
AcDbEntity
  8
0
  6
K5LT32785
 62
     7
370
    18
100
AcDbLine
 10
17.19221705081657
 20
59.47627823660129
 30
0.0
 11
17.06280752826531
 21
59.95924114974582
 31
0.0
  0
LINE
  5
3D8
330
1F
100
AcDbEntity
  8
0
  6
K5LT32785
 62
     7
370
    18
100
AcDbLine
 10
13.95697898703506
 20
71.55035106521464
 30
0.0
 11
13.8275694644838
 21
72.03331397835917
 31
0.0
  0
LINE
  5
3D9
330
1F
100
AcDbEntity
  8
0
  6
K5LT32785
 62
     7
370
    18
100
AcDbLine
 10
10.72174092325355
 20
83.624423893828
 30
0.0
 11
10.59233140070229
 21
84.10738680697253
 31
0.0
  0
LINE
  5
3DA
330
1F
100
AcDbEntity
  8
0
  6
K5LT32785
 62
     7
370
    18
100
AcDbLine
 10
7.486502859472036
 20
95.69849672244135
 30
0.0
 11
7.357093336920776
 21
96.18145963558588
 31
0.0
  0
LINE
  5
3DB
330
1F
100
AcDbEntity
  8
0
  6
K5LT32785
 62
     7
370
    18
100
AcDbLine
 10
27.17533265864517
 20
6.763970349726055
 30
0.0
 11
27.04592313609391
 21
7.246933262870589
 31
0.0
  0
LINE
  5
3DC
330
1F
100
AcDbEntity
  8
0
  6
K5LT32785
 62
     7
370
    18
100
AcDbLine
 10
23.94009459486366
 20
18.8380431783394
 30
0.0
 11
23.8106850723124
 21
19.32100609148394
 31
0.0
  0
LINE
  5
3DD
330
1F
100
AcDbEntity
  8
0
  6
K5LT32785
 62
     7
370
    18
100
AcDbLine
 10
20.70485653108215
 20
30.91211600695275
 30
0.0
 11
20.57544700853089
 21
31.39507892009729
 31
0.0
  0
LINE
  5
3DE
330
1F
100
AcDbEntity
  8
0
  6
K5LT32785
 62
     7
370
    18
100
AcDbLine
 10
17.46961846730064
 20
42.9861888355661
 30
0.0
 11
17.34020894474938
 21
43.46915174871064
 31
0.0
  0
LINE
  5
3DF
330
1F
100
AcDbEntity
  8
0
  6
K5LT32785
 62
     7
370
    18
100
AcDbLine
 10
14.23438040351913
 20
55.06026166417946
 30
0.0
 11
14.10497088096787
 21
55.54322457732399
 31
0.0
  0
LINE
  5
3E0
330
1F
100
AcDbEntity
  8
0
  6
K5LT32785
 62
     7
370
    18
100
AcDbLine
 10
10.99914233973762
 20
67.1343344927928
 30
0.0
 11
10.86973281718636
 21
67.61729740593734
 31
0.0
  0
LINE
  5
3E1
330
1F
100
AcDbEntity
  8
0
  6
K5LT32785
 62
     7
370
    18
100
AcDbLine
 10
7.763904275956108
 20
79.20840732140616
 30
0.0
 11
7.634494753404847
 21
79.69137023455069
 31
0.0
  0
LINE
  5
3E2
330
1F
100
AcDbEntity
  8
0
  6
K5LT32785
 62
     7
370
    18
100
AcDbLine
 10
4.528666212174596
 20
91.28248015001951
 30
0.0
 11
4.399256689623335
 21
91.76544306316404
 31
0.0
  0
LINE
  5
3E3
330
1F
100
AcDbEntity
  8
0
  6
K5LT32785
 62
     7
370
    18
100
AcDbLine
 10
24.21749601134772
 20
2.347953777304224
 30
0.0
 11
24.08808648879646
 21
2.830916690448758
 31
0.0
  0
LINE
  5
3E4
330
1F
100
AcDbEntity
  8
0
  6
K5LT32785
 62
     7
370
    18
100
AcDbLine
 10
20.98225794756621
 20
14.42202660591758
 30
0.0
 11
20.85284842501495
 21
14.90498951906211
 31
0.0
  0
LINE
  5
3E5
330
1F
100
AcDbEntity
  8
0
  6
K5LT32785
 62
     7
370
    18
100
AcDbLine
 10
17.7470198837847
 20
26.49609943453093
 30
0.0
 11
17.61761036123344
 21
26.97906234767547
 31
0.0
  0
LINE
  5
3E6
330
1F
100
AcDbEntity
  8
0
  6
K5LT32785
 62
     7
370
    18
100
AcDbLine
 10
14.51178182000319
 20
38.57017226314429
 30
0.0
 11
14.38237229745193
 21
39.05313517628882
 31
0.0
  0
LINE
  5
3E7
330
1F
100
AcDbEntity
  8
0
  6
K5LT32785
 62
     7
370
    18
100
AcDbLine
 10
11.27654375622168
 20
50.64424509175764
 30
0.0
 11
11.14713423367042
 21
51.12720800490217
 31
0.0
  0
LINE
  5
3E8
330
1F
100
AcDbEntity
  8
0
  6
K5LT32785
 62
     7
370
    18
100
AcDbLine
 10
8.041305692440167
 20
62.71831792037099
 30
0.0
 11
7.911896169888906
 21
63.20128083351553
 31
0.0
  0
LINE
  5
3E9
330
1F
100
AcDbEntity
  8
0
  6
K5LT32785
 62
     7
370
    18
100
AcDbLine
 10
4.806067628658656
 20
74.79239074898435
 30
0.0
 11
4.676658106107396
 21
75.27535366212888
 31
0.0
  0
LINE
  5
3EA
330
1F
100
AcDbEntity
  8
0
  6
K5LT32785
 62
     7
370
    18
100
AcDbLine
 10
1.570829564877145
 20
86.8664635775977
 30
0.0
 11
1.441420042325884
 21
87.34942649074223
 31
0.0
  0
LINE
  5
3EB
330
1F
100
AcDbEntity
  8
0
  6
K5LT32785
 62
     7
370
    18
100
AcDbLine
 10
18.02442130026876
 20
10.00601003349577
 30
0.0
 11
17.8950117777175
 21
10.48897294664031
 31
0.0
  0
LINE
  5
3EC
330
1F
100
AcDbEntity
  8
0
  6
K5LT32785
 62
     7
370
    18
100
AcDbLine
 10
14.78918323648724
 20
22.08008286210913
 30
0.0
 11
14.65977371393598
 21
22.56304577525366
 31
0.0
  0
LINE
  5
3ED
330
1F
100
AcDbEntity
  8
0
  6
K5LT32785
 62
     7
370
    18
100
AcDbLine
 10
11.55394517270573
 20
34.15415569072248
 30
0.0
 11
11.42453565015447
 21
34.63711860386702
 31
0.0
  0
LINE
  5
3EE
330
1F
100
AcDbEntity
  8
0
  6
K5LT32785
 62
     7
370
    18
100
AcDbLine
 10
8.31870710892422
 20
46.22822851933584
 30
0.0
 11
8.18929758637296
 21
46.71119143248037
 31
0.0
  0
LINE
  5
3EF
330
1F
100
AcDbEntity
  8
0
  6
K5LT32785
 62
     7
370
    18
100
AcDbLine
 10
5.083469045142708
 20
58.3023013479492
 30
0.0
 11
4.954059522591447
 21
58.78526426109373
 31
0.0
  0
LINE
  5
3F0
330
1F
100
AcDbEntity
  8
0
  6
K5LT32785
 62
     7
370
    18
100
AcDbLine
 10
1.848230981361196
 20
70.37637417656255
 30
0.0
 11
1.718821458809936
 21
70.85933708970708
 31
0.0
  0
LINE
  5
3F1
330
1F
100
AcDbEntity
  8
0
  6
K5LT32785
 62
     7
370
    18
100
AcDbLine
 10
15.06658465297131
 20
5.589993461073948
 30
0.0
 11
14.93717513042005
 21
6.072956374218482
 31
0.0
  0
LINE
  5
3F2
330
1F
100
AcDbEntity
  8
0
  6
K5LT32785
 62
     7
370
    18
100
AcDbLine
 10
11.8313465891898
 20
17.6640662896873
 30
0.0
 11
11.70193706663854
 21
18.14702920283183
 31
0.0
  0
LINE
  5
3F3
330
1F
100
AcDbEntity
  8
0
  6
K5LT32785
 62
     7
370
    18
100
AcDbLine
 10
8.596108525408283
 20
29.73813911830065
 30
0.0
 11
8.466699002857023
 21
30.22110203144519
 31
0.0
  0
LINE
  5
3F4
330
1F
100
AcDbEntity
  8
0
  6
K5LT32785
 62
     7
370
    18
100
AcDbLine
 10
5.360870461626772
 20
41.81221194691401
 30
0.0
 11
5.231460939075511
 21
42.29517486005854
 31
0.0
  0
LINE
  5
3F5
330
1F
100
AcDbEntity
  8
0
  6
K5LT32785
 62
     7
370
    18
100
AcDbLine
 10
2.125632397845259
 20
53.88628477552737
 30
0.0
 11
1.996222875293999
 21
54.3692476886719
 31
0.0
  0
LINE
  5
3F6
330
1F
100
AcDbEntity
  8
0
  6
K5LT32785
 62
     7
370
    18
100
AcDbLine
 10
12.10874800567386
 20
1.173976888652112
 30
0.0
 11
11.9793384831226
 21
1.656939801796646
 31
0.0
  0
LINE
  5
3F7
330
1F
100
AcDbEntity
  8
0
  6
K5LT32785
 62
     7
370
    18
100
AcDbLine
 10
8.87350994189235
 20
13.24804971726547
 30
0.0
 11
8.74410041934109
 21
13.73101263041
 31
0.0
  0
LINE
  5
3F8
330
1F
100
AcDbEntity
  8
0
  6
K5LT32785
 62
     7
370
    18
100
AcDbLine
 10
5.63827187811084
 20
25.32212254587882
 30
0.0
 11
5.508862355559579
 21
25.80508545902335
 31
0.0
  0
LINE
  5
3F9
330
1F
100
AcDbEntity
  8
0
  6
K5LT32785
 62
     7
370
    18
100
AcDbLine
 10
2.403033814329329
 20
37.39619537449217
 30
0.0
 11
2.273624291778069
 21
37.87915828763671
 31
0.0
  0
LINE
  5
3FA
330
1F
100
AcDbEntity
  8
0
  6
K5LT32785
 62
     7
370
    18
100
AcDbLine
 10
5.915673294594898
 20
8.832033144843646
 30
0.0
 11
5.786263772043637
 21
9.31499605798818
 31
0.0
  0
LINE
  5
3FB
330
1F
100
AcDbEntity
  8
0
  6
K5LT32785
 62
     7
370
    18
100
AcDbLine
 10
2.680435230813388
 20
20.906105973457
 30
0.0
 11
2.551025708262127
 21
21.38906888660153
 31
0.0
  0
LINE
  5
3FC
330
1F
100
AcDbEntity
  8
0
  6
K5LT32785
 62
     7
370
    18
100
AcDbLine
 10
2.957836647297449
 20
4.416016572421823
 30
0.0
 11
2.828427124746189
 21
4.898979485566357
 31
0.0
  0
LINE
  5
3FE
330
1F
100
AcDbEntity
  8
0
  6
K5LT32786
 62
     7
370
    18
100
AcDbLine
 10
99.41915226444988
 20
95.24747851265211
 30
0.0
 11
99.24814219278704
 21
95.71732482304506
 31
0.0
  0
LINE
  5
3FF
330
1F
100
AcDbEntity
  8
0
  6
K5LT32786
 62
     7
370
    18
100
AcDbLine
 10
99.16867657047335
 20
75.46902402483323
 30
0.0
 11
98.99766649881052
 21
75.93887033522618
 31
0.0
  0
LINE
  5
400
330
1F
100
AcDbEntity
  8
0
  6
K5LT32786
 62
     7
370
    18
100
AcDbLine
 10
96.60352549553083
 20
82.51671868072754
 30
0.0
 11
96.432515423868
 21
82.98656499112049
 31
0.0
  0
LINE
  5
401
330
1F
100
AcDbEntity
  8
0
  6
K5LT32786
 62
     7
370
    18
100
AcDbLine
 10
94.03837442058831
 20
89.56441333662184
 30
0.0
 11
93.86736434892548
 21
90.03425964701479
 31
0.0
  0
LINE
  5
402
330
1F
100
AcDbEntity
  8
0
  6
K5LT32786
 62
     7
370
    18
100
AcDbLine
 10
91.47322334564579
 20
96.61210799251616
 30
0.0
 11
91.30221327398296
 21
97.08195430290911
 31
0.0
  0
LINE
  5
403
330
1F
100
AcDbEntity
  8
0
  6
K5LT32786
 62
     7
370
    18
100
AcDbLine
 10
98.91820087649687
 20
55.69056953701419
 30
0.0
 11
98.74719080483403
 21
56.16041584740714
 31
0.0
  0
LINE
  5
404
330
1F
100
AcDbEntity
  8
0
  6
K5LT32786
 62
     7
370
    18
100
AcDbLine
 10
96.35304980155435
 20
62.7382641929085
 30
0.0
 11
96.18203972989151
 21
63.20811050330146
 31
0.0
  0
LINE
  5
405
330
1F
100
AcDbEntity
  8
0
  6
K5LT32786
 62
     7
370
    18
100
AcDbLine
 10
93.78789872661183
 20
69.78595884880282
 30
0.0
 11
93.616888654949
 21
70.25580515919577
 31
0.0
  0
LINE
  5
406
330
1F
100
AcDbEntity
  8
0
  6
K5LT32786
 62
     7
370
    18
100
AcDbLine
 10
91.22274765166931
 20
76.83365350469714
 30
0.0
 11
91.05173758000647
 21
77.30349981509009
 31
0.0
  0
LINE
  5
407
330
1F
100
AcDbEntity
  8
0
  6
K5LT32786
 62
     7
370
    18
100
AcDbLine
 10
88.6575965767268
 20
83.88134816059144
 30
0.0
 11
88.48658650506397
 21
84.3511944709844
 31
0.0
  0
LINE
  5
408
330
1F
100
AcDbEntity
  8
0
  6
K5LT32786
 62
     7
370
    18
100
AcDbLine
 10
86.09244550178428
 20
90.92904281648576
 30
0.0
 11
85.92143543012145
 21
91.39888912687871
 31
0.0
  0
LINE
  5
409
330
1F
100
AcDbEntity
  8
0
  6
K5LT32786
 62
     7
370
    18
100
AcDbLine
 10
83.52729442684178
 20
97.97673747238008
 30
0.0
 11
83.35628435517894
 21
98.44658378277303
 31
0.0
  0
LINE
  5
40A
330
1F
100
AcDbEntity
  8
0
  6
K5LT32786
 62
     7
370
    18
100
AcDbLine
 10
98.66772518252039
 20
35.91211504919522
 30
0.0
 11
98.49671511085755
 21
36.38196135958817
 31
0.0
  0
LINE
  5
40B
330
1F
100
AcDbEntity
  8
0
  6
K5LT32786
 62
     7
370
    18
100
AcDbLine
 10
96.10257410757787
 20
42.95980970508953
 30
0.0
 11
95.93156403591503
 21
43.42965601548249
 31
0.0
  0
LINE
  5
40C
330
1F
100
AcDbEntity
  8
0
  6
K5LT32786
 62
     7
370
    18
100
AcDbLine
 10
93.53742303263535
 20
50.00750436098384
 30
0.0
 11
93.36641296097251
 21
50.4773506713768
 31
0.0
  0
LINE
  5
40D
330
1F
100
AcDbEntity
  8
0
  6
K5LT32786
 62
     7
370
    18
100
AcDbLine
 10
90.97227195769283
 20
57.05519901687816
 30
0.0
 11
90.80126188602999
 21
57.52504532727111
 31
0.0
  0
LINE
  5
40E
330
1F
100
AcDbEntity
  8
0
  6
K5LT32786
 62
     7
370
    18
100
AcDbLine
 10
88.4071208827503
 20
64.10289367277247
 30
0.0
 11
88.23611081108747
 21
64.57273998316542
 31
0.0
  0
LINE
  5
40F
330
1F
100
AcDbEntity
  8
0
  6
K5LT32786
 62
     7
370
    18
100
AcDbLine
 10
85.84196980780779
 20
71.15058832866679
 30
0.0
 11
85.67095973614495
 21
71.62043463905974
 31
0.0
  0
LINE
  5
410
330
1F
100
AcDbEntity
  8
0
  6
K5LT32786
 62
     7
370
    18
100
AcDbLine
 10
83.27681873286528
 20
78.1982829845611
 30
0.0
 11
83.10580866120245
 21
78.66812929495406
 31
0.0
  0
LINE
  5
411
330
1F
100
AcDbEntity
  8
0
  6
K5LT32786
 62
     7
370
    18
100
AcDbLine
 10
80.71166765792276
 20
85.24597764045541
 30
0.0
 11
80.54065758625993
 21
85.71582395084836
 31
0.0
  0
LINE
  5
412
330
1F
100
AcDbEntity
  8
0
  6
K5LT32786
 62
     7
370
    18
100
AcDbLine
 10
78.14651658298025
 20
92.29367229634973
 30
0.0
 11
77.97550651131742
 21
92.76351860674268
 31
0.0
  0
LINE
  5
413
330
1F
100
AcDbEntity
  8
0
  6
K5LT32786
 62
     7
370
    18
100
AcDbLine
 10
75.58136550803775
 20
99.34136695224404
 30
0.0
 11
75.41035543637491
 21
99.811213262637
 31
0.0
  0
LINE
  5
414
330
1F
100
AcDbEntity
  8
0
  6
K5LT32786
 62
     7
370
    18
100
AcDbLine
 10
98.41724948854389
 20
16.13366056137623
 30
0.0
 11
98.24623941688105
 21
16.60350687176918
 31
0.0
  0
LINE
  5
415
330
1F
100
AcDbEntity
  8
0
  6
K5LT32786
 62
     7
370
    18
100
AcDbLine
 10
95.85209841360137
 20
23.18135521727054
 30
0.0
 11
95.68108834193853
 21
23.6512015276635
 31
0.0
  0
LINE
  5
416
330
1F
100
AcDbEntity
  8
0
  6
K5LT32786
 62
     7
370
    18
100
AcDbLine
 10
93.28694733865885
 20
30.22904987316485
 30
0.0
 11
93.11593726699601
 21
30.69889618355781
 31
0.0
  0
LINE
  5
417
330
1F
100
AcDbEntity
  8
0
  6
K5LT32786
 62
     7
370
    18
100
AcDbLine
 10
90.72179626371633
 20
37.27674452905917
 30
0.0
 11
90.5507861920535
 21
37.74659083945212
 31
0.0
  0
LINE
  5
418
330
1F
100
AcDbEntity
  8
0
  6
K5LT32786
 62
     7
370
    18
100
AcDbLine
 10
88.15664518877381
 20
44.32443918495348
 30
0.0
 11
87.98563511711097
 21
44.79428549534643
 31
0.0
  0
LINE
  5
419
330
1F
100
AcDbEntity
  8
0
  6
K5LT32786
 62
     7
370
    18
100
AcDbLine
 10
85.59149411383129
 20
51.37213384084779
 30
0.0
 11
85.42048404216845
 21
51.84198015124074
 31
0.0
  0
LINE
  5
41A
330
1F
100
AcDbEntity
  8
0
  6
K5LT32786
 62
     7
370
    18
100
AcDbLine
 10
83.02634303888877
 20
58.4198284967421
 30
0.0
 11
82.85533296722593
 21
58.88967480713505
 31
0.0
  0
LINE
  5
41B
330
1F
100
AcDbEntity
  8
0
  6
K5LT32786
 62
     7
370
    18
100
AcDbLine
 10
80.46119196394625
 20
65.46752315263642
 30
0.0
 11
80.29018189228341
 21
65.93736946302937
 31
0.0
  0
LINE
  5
41C
330
1F
100
AcDbEntity
  8
0
  6
K5LT32786
 62
     7
370
    18
100
AcDbLine
 10
77.89604088900374
 20
72.51521780853074
 30
0.0
 11
77.72503081734091
 21
72.98506411892369
 31
0.0
  0
LINE
  5
41D
330
1F
100
AcDbEntity
  8
0
  6
K5LT32786
 62
     7
370
    18
100
AcDbLine
 10
75.33088981406124
 20
79.56291246442504
 30
0.0
 11
75.1598797423984
 21
80.03275877481799
 31
0.0
  0
LINE
  5
41E
330
1F
100
AcDbEntity
  8
0
  6
K5LT32786
 62
     7
370
    18
100
AcDbLine
 10
72.76573873911872
 20
86.61060712031936
 30
0.0
 11
72.59472866745588
 21
87.08045343071231
 31
0.0
  0
LINE
  5
41F
330
1F
100
AcDbEntity
  8
0
  6
K5LT32786
 62
     7
370
    18
100
AcDbLine
 10
70.20058766417621
 20
93.65830177621366
 30
0.0
 11
70.02957759251338
 21
94.12814808660661
 31
0.0
  0
LINE
  5
420
330
1F
100
AcDbEntity
  8
0
  6
K5LT32786
 62
     7
370
    18
100
AcDbLine
 10
95.6016227196249
 20
3.402900729451551
 30
0.0
 11
95.43061264796206
 21
3.872747039844506
 31
0.0
  0
LINE
  5
421
330
1F
100
AcDbEntity
  8
0
  6
K5LT32786
 62
     7
370
    18
100
AcDbLine
 10
93.03647164468238
 20
10.45059538534587
 30
0.0
 11
92.86546157301954
 21
10.92044169573882
 31
0.0
  0
LINE
  5
422
330
1F
100
AcDbEntity
  8
0
  6
K5LT32786
 62
     7
370
    18
100
AcDbLine
 10
90.47132056973986
 20
17.49829004124018
 30
0.0
 11
90.30031049807702
 21
17.96813635163313
 31
0.0
  0
LINE
  5
423
330
1F
100
AcDbEntity
  8
0
  6
K5LT32786
 62
     7
370
    18
100
AcDbLine
 10
87.90616949479734
 20
24.54598469713449
 30
0.0
 11
87.7351594231345
 21
25.01583100752745
 31
0.0
  0
LINE
  5
424
330
1F
100
AcDbEntity
  8
0
  6
K5LT32786
 62
     7
370
    18
100
AcDbLine
 10
85.34101841985482
 20
31.5936793530288
 30
0.0
 11
85.17000834819198
 21
32.06352566342176
 31
0.0
  0
LINE
  5
425
330
1F
100
AcDbEntity
  8
0
  6
K5LT32786
 62
     7
370
    18
100
AcDbLine
 10
82.7758673449123
 20
38.64137400892312
 30
0.0
 11
82.60485727324946
 21
39.11122031931607
 31
0.0
  0
LINE
  5
426
330
1F
100
AcDbEntity
  8
0
  6
K5LT32786
 62
     7
370
    18
100
AcDbLine
 10
80.21071626996978
 20
45.68906866481743
 30
0.0
 11
80.03970619830694
 21
46.15891497521038
 31
0.0
  0
LINE
  5
427
330
1F
100
AcDbEntity
  8
0
  6
K5LT32786
 62
     7
370
    18
100
AcDbLine
 10
77.64556519502727
 20
52.73676332071174
 30
0.0
 11
77.47455512336444
 21
53.20660963110469
 31
0.0
  0
LINE
  5
428
330
1F
100
AcDbEntity
  8
0
  6
K5LT32786
 62
     7
370
    18
100
AcDbLine
 10
75.08041412008475
 20
59.78445797660605
 30
0.0
 11
74.90940404842192
 21
60.254304286999
 31
0.0
  0
LINE
  5
429
330
1F
100
AcDbEntity
  8
0
  6
K5LT32786
 62
     7
370
    18
100
AcDbLine
 10
72.51526304514225
 20
66.83215263250037
 30
0.0
 11
72.34425297347941
 21
67.30199894289332
 31
0.0
  0
LINE
  5
42A
330
1F
100
AcDbEntity
  8
0
  6
K5LT32786
 62
     7
370
    18
100
AcDbLine
 10
69.95011197019973
 20
73.87984728839469
 30
0.0
 11
69.7791018985369
 21
74.34969359878764
 31
0.0
  0
LINE
  5
42B
330
1F
100
AcDbEntity
  8
0
  6
K5LT32786
 62
     7
370
    18
100
AcDbLine
 10
67.38496089525722
 20
80.927541944289
 30
0.0
 11
67.21395082359439
 21
81.39738825468196
 31
0.0
  0
LINE
  5
42C
330
1F
100
AcDbEntity
  8
0
  6
K5LT32786
 62
     7
370
    18
100
AcDbLine
 10
64.8198098203147
 20
87.97523660018332
 30
0.0
 11
64.64879974865187
 21
88.44508291057628
 31
0.0
  0
LINE
  5
42D
330
1F
100
AcDbEntity
  8
0
  6
K5LT32786
 62
     7
370
    18
100
AcDbLine
 10
62.25465874537219
 20
95.02293125607763
 30
0.0
 11
62.08364867370936
 21
95.49277756647058
 31
0.0
  0
LINE
  5
42E
330
1F
100
AcDbEntity
  8
0
  6
K5LT32786
 62
     7
370
    18
100
AcDbLine
 10
87.65569380082086
 20
4.767530209315502
 30
0.0
 11
87.48468372915802
 21
5.237376519708456
 31
0.0
  0
LINE
  5
42F
330
1F
100
AcDbEntity
  8
0
  6
K5LT32786
 62
     7
370
    18
100
AcDbLine
 10
85.09054272587834
 20
11.81522486520982
 30
0.0
 11
84.9195326542155
 21
12.28507117560277
 31
0.0
  0
LINE
  5
430
330
1F
100
AcDbEntity
  8
0
  6
K5LT32786
 62
     7
370
    18
100
AcDbLine
 10
82.52539165093582
 20
18.86291952110413
 30
0.0
 11
82.35438157927298
 21
19.33276583149708
 31
0.0
  0
LINE
  5
431
330
1F
100
AcDbEntity
  8
0
  6
K5LT32786
 62
     7
370
    18
100
AcDbLine
 10
79.9602405759933
 20
25.91061417699844
 30
0.0
 11
79.78923050433046
 21
26.38046048739139
 31
0.0
  0
LINE
  5
432
330
1F
100
AcDbEntity
  8
0
  6
K5LT32786
 62
     7
370
    18
100
AcDbLine
 10
77.39508950105078
 20
32.95830883289275
 30
0.0
 11
77.22407942938794
 21
33.42815514328571
 31
0.0
  0
LINE
  5
433
330
1F
100
AcDbEntity
  8
0
  6
K5LT32786
 62
     7
370
    18
100
AcDbLine
 10
74.82993842610826
 20
40.00600348878707
 30
0.0
 11
74.65892835444542
 21
40.47584979918002
 31
0.0
  0
LINE
  5
434
330
1F
100
AcDbEntity
  8
0
  6
K5LT32786
 62
     7
370
    18
100
AcDbLine
 10
72.26478735116575
 20
47.05369814468138
 30
0.0
 11
72.09377727950292
 21
47.52354445507433
 31
0.0
  0
LINE
  5
435
330
1F
100
AcDbEntity
  8
0
  6
K5LT32786
 62
     7
370
    18
100
AcDbLine
 10
69.69963627622323
 20
54.10139280057569
 30
0.0
 11
69.5286262045604
 21
54.57123911096864
 31
0.0
  0
LINE
  5
436
330
1F
100
AcDbEntity
  8
0
  6
K5LT32786
 62
     7
370
    18
100
AcDbLine
 10
67.13448520128073
 20
61.14908745647
 30
0.0
 11
66.96347512961789
 21
61.61893376686295
 31
0.0
  0
LINE
  5
437
330
1F
100
AcDbEntity
  8
0
  6
K5LT32786
 62
     7
370
    18
100
AcDbLine
 10
64.5693341263382
 20
68.19678211236432
 30
0.0
 11
64.39832405467537
 21
68.66662842275727
 31
0.0
  0
LINE
  5
438
330
1F
100
AcDbEntity
  8
0
  6
K5LT32786
 62
     7
370
    18
100
AcDbLine
 10
62.00418305139569
 20
75.24447676825864
 30
0.0
 11
61.83317297973286
 21
75.71432307865159
 31
0.0
  0
LINE
  5
439
330
1F
100
AcDbEntity
  8
0
  6
K5LT32786
 62
     7
370
    18
100
AcDbLine
 10
59.43903197645318
 20
82.29217142415295
 30
0.0
 11
59.26802190479034
 21
82.7620177345459
 31
0.0
  0
LINE
  5
43A
330
1F
100
AcDbEntity
  8
0
  6
K5LT32786
 62
     7
370
    18
100
AcDbLine
 10
56.87388090151067
 20
89.33986608004727
 30
0.0
 11
56.70287082984783
 21
89.80971239044023
 31
0.0
  0
LINE
  5
43B
330
1F
100
AcDbEntity
  8
0
  6
K5LT32786
 62
     7
370
    18
100
AcDbLine
 10
54.30872982656816
 20
96.38756073594158
 30
0.0
 11
54.13771975490533
 21
96.85740704633453
 31
0.0
  0
LINE
  5
43C
330
1F
100
AcDbEntity
  8
0
  6
K5LT32786
 62
     7
370
    18
100
AcDbLine
 10
79.70976488201683
 20
6.13215968917946
 30
0.0
 11
79.53875481035399
 21
6.602005999572414
 31
0.0
  0
LINE
  5
43D
330
1F
100
AcDbEntity
  8
0
  6
K5LT32786
 62
     7
370
    18
100
AcDbLine
 10
77.14461380707431
 20
13.17985434507377
 30
0.0
 11
76.97360373541147
 21
13.64970065546673
 31
0.0
  0
LINE
  5
43E
330
1F
100
AcDbEntity
  8
0
  6
K5LT32786
 62
     7
370
    18
100
AcDbLine
 10
74.57946273213179
 20
20.22754900096809
 30
0.0
 11
74.40845266046895
 21
20.69739531136104
 31
0.0
  0
LINE
  5
43F
330
1F
100
AcDbEntity
  8
0
  6
K5LT32786
 62
     7
370
    18
100
AcDbLine
 10
72.01431165718927
 20
27.2752436568624
 30
0.0
 11
71.84330158552643
 21
27.74508996725535
 31
0.0
  0
LINE
  5
440
330
1F
100
AcDbEntity
  8
0
  6
K5LT32786
 62
     7
370
    18
100
AcDbLine
 10
69.44916058224675
 20
34.32293831275671
 30
0.0
 11
69.27815051058391
 21
34.79278462314966
 31
0.0
  0
LINE
  5
441
330
1F
100
AcDbEntity
  8
0
  6
K5LT32786
 62
     7
370
    18
100
AcDbLine
 10
66.88400950730423
 20
41.37063296865102
 30
0.0
 11
66.7129994356414
 21
41.84047927904398
 31
0.0
  0
LINE
  5
442
330
1F
100
AcDbEntity
  8
0
  6
K5LT32786
 62
     7
370
    18
100
AcDbLine
 10
64.31885843236172
 20
48.41832762454533
 30
0.0
 11
64.14784836069889
 21
48.88817393493829
 31
0.0
  0
LINE
  5
443
330
1F
100
AcDbEntity
  8
0
  6
K5LT32786
 62
     7
370
    18
100
AcDbLine
 10
61.75370735741921
 20
55.46602228043965
 30
0.0
 11
61.58269728575637
 21
55.9358685908326
 31
0.0
  0
LINE
  5
444
330
1F
100
AcDbEntity
  8
0
  6
K5LT32786
 62
     7
370
    18
100
AcDbLine
 10
59.1885562824767
 20
62.51371693633396
 30
0.0
 11
59.01754621081386
 21
62.98356324672691
 31
0.0
  0
LINE
  5
445
330
1F
100
AcDbEntity
  8
0
  6
K5LT32786
 62
     7
370
    18
100
AcDbLine
 10
56.62340520753418
 20
69.56141159222827
 30
0.0
 11
56.45239513587135
 21
70.03125790262122
 31
0.0
  0
LINE
  5
446
330
1F
100
AcDbEntity
  8
0
  6
K5LT32786
 62
     7
370
    18
100
AcDbLine
 10
54.05825413259167
 20
76.60910624812259
 30
0.0
 11
53.88724406092884
 21
77.07895255851554
 31
0.0
  0
LINE
  5
447
330
1F
100
AcDbEntity
  8
0
  6
K5LT32786
 62
     7
370
    18
100
AcDbLine
 10
51.49310305764916
 20
83.6568009040169
 30
0.0
 11
51.32209298598632
 21
84.12664721440986
 31
0.0
  0
LINE
  5
448
330
1F
100
AcDbEntity
  8
0
  6
K5LT32786
 62
     7
370
    18
100
AcDbLine
 10
48.92795198270665
 20
90.70449555991122
 30
0.0
 11
48.75694191104381
 21
91.17434187030418
 31
0.0
  0
LINE
  5
449
330
1F
100
AcDbEntity
  8
0
  6
K5LT32786
 62
     7
370
    18
100
AcDbLine
 10
46.36280090776413
 20
97.75219021580553
 30
0.0
 11
46.1917908361013
 21
98.22203652619848
 31
0.0
  0
LINE
  5
44A
330
1F
100
AcDbEntity
  8
0
  6
K5LT32786
 62
     7
370
    18
100
AcDbLine
 10
74.3289870381553
 20
0.4490945131491011
 30
0.0
 11
74.15797696649247
 21
0.9189408235420553
 31
0.0
  0
LINE
  5
44B
330
1F
100
AcDbEntity
  8
0
  6
K5LT32786
 62
     7
370
    18
100
AcDbLine
 10
71.76383596321278
 20
7.496789169043415
 30
0.0
 11
71.59282589154995
 21
7.966635479436369
 31
0.0
  0
LINE
  5
44C
330
1F
100
AcDbEntity
  8
0
  6
K5LT32786
 62
     7
370
    18
100
AcDbLine
 10
69.19868488827026
 20
14.54448382493773
 30
0.0
 11
69.02767481660743
 21
15.01433013533068
 31
0.0
  0
LINE
  5
44D
330
1F
100
AcDbEntity
  8
0
  6
K5LT32786
 62
     7
370
    18
100
AcDbLine
 10
66.63353381332774
 20
21.59217848083204
 30
0.0
 11
66.46252374166491
 21
22.062024791225
 31
0.0
  0
LINE
  5
44E
330
1F
100
AcDbEntity
  8
0
  6
K5LT32786
 62
     7
370
    18
100
AcDbLine
 10
64.06838273838522
 20
28.63987313672635
 30
0.0
 11
63.89737266672239
 21
29.10971944711931
 31
0.0
  0
LINE
  5
44F
330
1F
100
AcDbEntity
  8
0
  6
K5LT32786
 62
     7
370
    18
100
AcDbLine
 10
61.50323166344271
 20
35.68756779262067
 30
0.0
 11
61.33222159177988
 21
36.15741410301362
 31
0.0
  0
LINE
  5
450
330
1F
100
AcDbEntity
  8
0
  6
K5LT32786
 62
     7
370
    18
100
AcDbLine
 10
58.9380805885002
 20
42.73526244851498
 30
0.0
 11
58.76707051683736
 21
43.20510875890793
 31
0.0
  0
LINE
  5
451
330
1F
100
AcDbEntity
  8
0
  6
K5LT32786
 62
     7
370
    18
100
AcDbLine
 10
56.37292951355769
 20
49.78295710440929
 30
0.0
 11
56.20191944189485
 21
50.25280341480224
 31
0.0
  0
LINE
  5
452
330
1F
100
AcDbEntity
  8
0
  6
K5LT32786
 62
     7
370
    18
100
AcDbLine
 10
53.80777843861517
 20
56.8306517603036
 30
0.0
 11
53.63676836695234
 21
57.30049807069656
 31
0.0
  0
LINE
  5
453
330
1F
100
AcDbEntity
  8
0
  6
K5LT32786
 62
     7
370
    18
100
AcDbLine
 10
51.24262736367266
 20
63.87834641619791
 30
0.0
 11
51.07161729200983
 21
64.34819272659087
 31
0.0
  0
LINE
  5
454
330
1F
100
AcDbEntity
  8
0
  6
K5LT32786
 62
     7
370
    18
100
AcDbLine
 10
48.67747628873015
 20
70.92604107209223
 30
0.0
 11
48.50646621706731
 21
71.39588738248518
 31
0.0
  0
LINE
  5
455
330
1F
100
AcDbEntity
  8
0
  6
K5LT32786
 62
     7
370
    18
100
AcDbLine
 10
46.11232521378763
 20
77.97373572798655
 30
0.0
 11
45.9413151421248
 21
78.4435820383795
 31
0.0
  0
LINE
  5
456
330
1F
100
AcDbEntity
  8
0
  6
K5LT32786
 62
     7
370
    18
100
AcDbLine
 10
43.54717413884512
 20
85.02143038388087
 30
0.0
 11
43.37616406718229
 21
85.49127669427382
 31
0.0
  0
LINE
  5
457
330
1F
100
AcDbEntity
  8
0
  6
K5LT32786
 62
     7
370
    18
100
AcDbLine
 10
40.9820230639026
 20
92.06912503977517
 30
0.0
 11
40.81101299223977
 21
92.53897135016813
 31
0.0
  0
LINE
  5
458
330
1F
100
AcDbEntity
  8
0
  6
K5LT32786
 62
     7
370
    18
100
AcDbLine
 10
38.41687198896009
 20
99.11681969566949
 30
0.0
 11
38.24586191729725
 21
99.58666600606244
 31
0.0
  0
LINE
  5
459
330
1F
100
AcDbEntity
  8
0
  6
K5LT32786
 62
     7
370
    18
100
AcDbLine
 10
66.38305811935126
 20
1.813723993013049
 30
0.0
 11
66.21204804768843
 21
2.283570303406004
 31
0.0
  0
LINE
  5
45A
330
1F
100
AcDbEntity
  8
0
  6
K5LT32786
 62
     7
370
    18
100
AcDbLine
 10
63.81790704440875
 20
8.861418648907362
 30
0.0
 11
63.64689697274591
 21
9.331264959300317
 31
0.0
  0
LINE
  5
45B
330
1F
100
AcDbEntity
  8
0
  6
K5LT32786
 62
     7
370
    18
100
AcDbLine
 10
61.25275596946624
 20
15.90911330480168
 30
0.0
 11
61.0817458978034
 21
16.37895961519463
 31
0.0
  0
LINE
  5
45C
330
1F
100
AcDbEntity
  8
0
  6
K5LT32786
 62
     7
370
    18
100
AcDbLine
 10
58.68760489452372
 20
22.95680796069599
 30
0.0
 11
58.51659482286089
 21
23.42665427108894
 31
0.0
  0
LINE
  5
45D
330
1F
100
AcDbEntity
  8
0
  6
K5LT32786
 62
     7
370
    18
100
AcDbLine
 10
56.12245381958121
 20
30.0045026165903
 30
0.0
 11
55.95144374791838
 21
30.47434892698325
 31
0.0
  0
LINE
  5
45E
330
1F
100
AcDbEntity
  8
0
  6
K5LT32786
 62
     7
370
    18
100
AcDbLine
 10
53.5573027446387
 20
37.05219727248461
 30
0.0
 11
53.38629267297586
 21
37.52204358287756
 31
0.0
  0
LINE
  5
45F
330
1F
100
AcDbEntity
  8
0
  6
K5LT32786
 62
     7
370
    18
100
AcDbLine
 10
50.99215166969618
 20
44.09989192837892
 30
0.0
 11
50.82114159803335
 21
44.56973823877188
 31
0.0
  0
LINE
  5
460
330
1F
100
AcDbEntity
  8
0
  6
K5LT32786
 62
     7
370
    18
100
AcDbLine
 10
48.42700059475367
 20
51.14758658427323
 30
0.0
 11
48.25599052309084
 21
51.61743289466619
 31
0.0
  0
LINE
  5
461
330
1F
100
AcDbEntity
  8
0
  6
K5LT32786
 62
     7
370
    18
100
AcDbLine
 10
45.86184951981115
 20
58.19528124016755
 30
0.0
 11
45.69083944814832
 21
58.6651275505605
 31
0.0
  0
LINE
  5
462
330
1F
100
AcDbEntity
  8
0
  6
K5LT32786
 62
     7
370
    18
100
AcDbLine
 10
43.29669844486864
 20
65.24297589606186
 30
0.0
 11
43.1256883732058
 21
65.71282220645482
 31
0.0
  0
LINE
  5
463
330
1F
100
AcDbEntity
  8
0
  6
K5LT32786
 62
     7
370
    18
100
AcDbLine
 10
40.73154736992612
 20
72.29067055195618
 30
0.0
 11
40.56053729826328
 21
72.76051686234914
 31
0.0
  0
LINE
  5
464
330
1F
100
AcDbEntity
  8
0
  6
K5LT32786
 62
     7
370
    18
100
AcDbLine
 10
38.16639629498361
 20
79.3383652078505
 30
0.0
 11
37.99538622332077
 21
79.80821151824345
 31
0.0
  0
LINE
  5
465
330
1F
100
AcDbEntity
  8
0
  6
K5LT32786
 62
     7
370
    18
100
AcDbLine
 10
35.60124522004109
 20
86.38605986374482
 30
0.0
 11
35.43023514837826
 21
86.85590617413777
 31
0.0
  0
LINE
  5
466
330
1F
100
AcDbEntity
  8
0
  6
K5LT32786
 62
     7
370
    18
100
AcDbLine
 10
33.03609414509857
 20
93.43375451963912
 30
0.0
 11
32.86508407343574
 21
93.90360083003208
 31
0.0
  0
LINE
  5
467
330
1F
100
AcDbEntity
  8
0
  6
K5LT32786
 62
     7
370
    18
100
AcDbLine
 10
58.43712920054723
 20
3.178353472877007
 30
0.0
 11
58.2661191288844
 21
3.648199783269962
 31
0.0
  0
LINE
  5
468
330
1F
100
AcDbEntity
  8
0
  6
K5LT32786
 62
     7
370
    18
100
AcDbLine
 10
55.87197812560472
 20
10.22604812877132
 30
0.0
 11
55.70096805394189
 21
10.69589443916428
 31
0.0
  0
LINE
  5
469
330
1F
100
AcDbEntity
  8
0
  6
K5LT32786
 62
     7
370
    18
100
AcDbLine
 10
53.30682705066221
 20
17.27374278466564
 30
0.0
 11
53.13581697899937
 21
17.74358909505859
 31
0.0
  0
LINE
  5
46A
330
1F
100
AcDbEntity
  8
0
  6
K5LT32786
 62
     7
370
    18
100
AcDbLine
 10
50.74167597571969
 20
24.32143744055995
 30
0.0
 11
50.57066590405686
 21
24.7912837509529
 31
0.0
  0
LINE
  5
46B
330
1F
100
AcDbEntity
  8
0
  6
K5LT32786
 62
     7
370
    18
100
AcDbLine
 10
48.17652490077718
 20
31.36913209645426
 30
0.0
 11
48.00551482911435
 21
31.83897840684721
 31
0.0
  0
LINE
  5
46C
330
1F
100
AcDbEntity
  8
0
  6
K5LT32786
 62
     7
370
    18
100
AcDbLine
 10
45.61137382583466
 20
38.41682675234857
 30
0.0
 11
45.44036375417183
 21
38.88667306274152
 31
0.0
  0
LINE
  5
46D
330
1F
100
AcDbEntity
  8
0
  6
K5LT32786
 62
     7
370
    18
100
AcDbLine
 10
43.04622275089214
 20
45.46452140824288
 30
0.0
 11
42.87521267922931
 21
45.93436771863583
 31
0.0
  0
LINE
  5
46E
330
1F
100
AcDbEntity
  8
0
  6
K5LT32786
 62
     7
370
    18
100
AcDbLine
 10
40.48107167594963
 20
52.51221606413719
 30
0.0
 11
40.31006160428679
 21
52.98206237453014
 31
0.0
  0
LINE
  5
46F
330
1F
100
AcDbEntity
  8
0
  6
K5LT32786
 62
     7
370
    18
100
AcDbLine
 10
37.91592060100712
 20
59.5599107200315
 30
0.0
 11
37.74491052934428
 21
60.02975703042446
 31
0.0
  0
LINE
  5
470
330
1F
100
AcDbEntity
  8
0
  6
K5LT32786
 62
     7
370
    18
100
AcDbLine
 10
35.3507695260646
 20
66.60760537592581
 30
0.0
 11
35.17975945440176
 21
67.07745168631877
 31
0.0
  0
LINE
  5
471
330
1F
100
AcDbEntity
  8
0
  6
K5LT32786
 62
     7
370
    18
100
AcDbLine
 10
32.78561845112208
 20
73.65530003182013
 30
0.0
 11
32.61460837945925
 21
74.12514634221309
 31
0.0
  0
LINE
  5
472
330
1F
100
AcDbEntity
  8
0
  6
K5LT32786
 62
     7
370
    18
100
AcDbLine
 10
30.22046737617957
 20
80.70299468771445
 30
0.0
 11
30.04945730451673
 21
81.1728409981074
 31
0.0
  0
LINE
  5
473
330
1F
100
AcDbEntity
  8
0
  6
K5LT32786
 62
     7
370
    18
100
AcDbLine
 10
27.65531630123705
 20
87.75068934360877
 30
0.0
 11
27.48430622957422
 21
88.22053565400172
 31
0.0
  0
LINE
  5
474
330
1F
100
AcDbEntity
  8
0
  6
K5LT32786
 62
     7
370
    18
100
AcDbLine
 10
25.09016522629453
 20
94.79838399950307
 30
0.0
 11
24.9191551546317
 21
95.26823030989603
 31
0.0
  0
LINE
  5
475
330
1F
100
AcDbEntity
  8
0
  6
K5LT32786
 62
     7
370
    18
100
AcDbLine
 10
50.4912002817432
 20
4.542982952740954
 30
0.0
 11
50.32019021008036
 21
5.012829263133908
 31
0.0
  0
LINE
  5
476
330
1F
100
AcDbEntity
  8
0
  6
K5LT32786
 62
     7
370
    18
100
AcDbLine
 10
47.92604920680068
 20
11.59067760863527
 30
0.0
 11
47.75503913513785
 21
12.06052391902822
 31
0.0
  0
LINE
  5
477
330
1F
100
AcDbEntity
  8
0
  6
K5LT32786
 62
     7
370
    18
100
AcDbLine
 10
45.36089813185817
 20
18.63837226452958
 30
0.0
 11
45.18988806019534
 21
19.10821857492253
 31
0.0
  0
LINE
  5
478
330
1F
100
AcDbEntity
  8
0
  6
K5LT32786
 62
     7
370
    18
100
AcDbLine
 10
42.79574705691566
 20
25.68606692042389
 30
0.0
 11
42.62473698525282
 21
26.15591323081684
 31
0.0
  0
LINE
  5
479
330
1F
100
AcDbEntity
  8
0
  6
K5LT32786
 62
     7
370
    18
100
AcDbLine
 10
40.23059598197314
 20
32.7337615763182
 30
0.0
 11
40.0595859103103
 21
33.20360788671115
 31
0.0
  0
LINE
  5
47A
330
1F
100
AcDbEntity
  8
0
  6
K5LT32786
 62
     7
370
    18
100
AcDbLine
 10
37.66544490703063
 20
39.78145623221251
 30
0.0
 11
37.49443483536779
 21
40.25130254260547
 31
0.0
  0
LINE
  5
47B
330
1F
100
AcDbEntity
  8
0
  6
K5LT32786
 62
     7
370
    18
100
AcDbLine
 10
35.10029383208811
 20
46.82915088810682
 30
0.0
 11
34.92928376042528
 21
47.29899719849978
 31
0.0
  0
LINE
  5
47C
330
1F
100
AcDbEntity
  8
0
  6
K5LT32786
 62
     7
370
    18
100
AcDbLine
 10
32.53514275714559
 20
53.87684554400114
 30
0.0
 11
32.36413268548276
 21
54.34669185439409
 31
0.0
  0
LINE
  5
47D
330
1F
100
AcDbEntity
  8
0
  6
K5LT32786
 62
     7
370
    18
100
AcDbLine
 10
29.96999168220308
 20
60.92454019989545
 30
0.0
 11
29.79898161054024
 21
61.3943865102884
 31
0.0
  0
LINE
  5
47E
330
1F
100
AcDbEntity
  8
0
  6
K5LT32786
 62
     7
370
    18
100
AcDbLine
 10
27.40484060726056
 20
67.97223485578976
 30
0.0
 11
27.23383053559773
 21
68.44208116618272
 31
0.0
  0
LINE
  5
47F
330
1F
100
AcDbEntity
  8
0
  6
K5LT32786
 62
     7
370
    18
100
AcDbLine
 10
24.83968953231804
 20
75.01992951168408
 30
0.0
 11
24.66867946065521
 21
75.48977582207704
 31
0.0
  0
LINE
  5
480
330
1F
100
AcDbEntity
  8
0
  6
K5LT32786
 62
     7
370
    18
100
AcDbLine
 10
22.27453845737553
 20
82.0676241675784
 30
0.0
 11
22.10352838571269
 21
82.53747047797135
 31
0.0
  0
LINE
  5
481
330
1F
100
AcDbEntity
  8
0
  6
K5LT32786
 62
     7
370
    18
100
AcDbLine
 10
19.70938738243301
 20
89.11531882347272
 30
0.0
 11
19.53837731077018
 21
89.58516513386567
 31
0.0
  0
LINE
  5
482
330
1F
100
AcDbEntity
  8
0
  6
K5LT32786
 62
     7
370
    18
100
AcDbLine
 10
17.14423630749049
 20
96.16301347936702
 30
0.0
 11
16.97322623582766
 21
96.63285978975998
 31
0.0
  0
LINE
  5
483
330
1F
100
AcDbEntity
  8
0
  6
K5LT32786
 62
     7
370
    18
100
AcDbLine
 10
42.54527136293917
 20
5.907612432604911
 30
0.0
 11
42.37426129127633
 21
6.377458742997866
 31
0.0
  0
LINE
  5
484
330
1F
100
AcDbEntity
  8
0
  6
K5LT32786
 62
     7
370
    18
100
AcDbLine
 10
39.98012028799666
 20
12.95530708849923
 30
0.0
 11
39.80911021633382
 21
13.42515339889218
 31
0.0
  0
LINE
  5
485
330
1F
100
AcDbEntity
  8
0
  6
K5LT32786
 62
     7
370
    18
100
AcDbLine
 10
37.41496921305414
 20
20.00300174439354
 30
0.0
 11
37.2439591413913
 21
20.47284805478649
 31
0.0
  0
LINE
  5
486
330
1F
100
AcDbEntity
  8
0
  6
K5LT32786
 62
     7
370
    18
100
AcDbLine
 10
34.84981813811162
 20
27.05069640028785
 30
0.0
 11
34.67880806644878
 21
27.5205427106808
 31
0.0
  0
LINE
  5
487
330
1F
100
AcDbEntity
  8
0
  6
K5LT32786
 62
     7
370
    18
100
AcDbLine
 10
32.2846670631691
 20
34.09839105618217
 30
0.0
 11
32.11365699150627
 21
34.56823736657512
 31
0.0
  0
LINE
  5
488
330
1F
100
AcDbEntity
  8
0
  6
K5LT32786
 62
     7
370
    18
100
AcDbLine
 10
29.71951598822659
 20
41.14608571207648
 30
0.0
 11
29.54850591656375
 21
41.61593202246943
 31
0.0
  0
LINE
  5
489
330
1F
100
AcDbEntity
  8
0
  6
K5LT32786
 62
     7
370
    18
100
AcDbLine
 10
27.15436491328407
 20
48.19378036797079
 30
0.0
 11
26.98335484162124
 21
48.66362667836374
 31
0.0
  0
LINE
  5
48A
330
1F
100
AcDbEntity
  8
0
  6
K5LT32786
 62
     7
370
    18
100
AcDbLine
 10
24.58921383834155
 20
55.2414750238651
 30
0.0
 11
24.41820376667872
 21
55.71132133425805
 31
0.0
  0
LINE
  5
48B
330
1F
100
AcDbEntity
  8
0
  6
K5LT32786
 62
     7
370
    18
100
AcDbLine
 10
22.02406276339904
 20
62.28916967975941
 30
0.0
 11
21.8530526917362
 21
62.75901599015236
 31
0.0
  0
LINE
  5
48C
330
1F
100
AcDbEntity
  8
0
  6
K5LT32786
 62
     7
370
    18
100
AcDbLine
 10
19.45891168845652
 20
69.33686433565373
 30
0.0
 11
19.28790161679369
 21
69.80671064604668
 31
0.0
  0
LINE
  5
48D
330
1F
100
AcDbEntity
  8
0
  6
K5LT32786
 62
     7
370
    18
100
AcDbLine
 10
16.893760613514
 20
76.38455899154805
 30
0.0
 11
16.72275054185117
 21
76.854405301941
 31
0.0
  0
LINE
  5
48E
330
1F
100
AcDbEntity
  8
0
  6
K5LT32786
 62
     7
370
    18
100
AcDbLine
 10
14.32860953857149
 20
83.43225364744237
 30
0.0
 11
14.15759946690865
 21
83.90209995783532
 31
0.0
  0
LINE
  5
48F
330
1F
100
AcDbEntity
  8
0
  6
K5LT32786
 62
     7
370
    18
100
AcDbLine
 10
11.76345846362897
 20
90.47994830333668
 30
0.0
 11
11.59244839196614
 21
90.94979461372964
 31
0.0
  0
LINE
  5
490
330
1F
100
AcDbEntity
  8
0
  6
K5LT32786
 62
     7
370
    18
100
AcDbLine
 10
9.198307388686457
 20
97.52764295923099
 30
0.0
 11
9.027297317023622
 21
97.99748926962394
 31
0.0
  0
LINE
  5
491
330
1F
100
AcDbEntity
  8
0
  6
K5LT32786
 62
     7
370
    18
100
AcDbLine
 10
37.16449351907765
 20
0.2245472565745489
 30
0.0
 11
36.99348344741482
 21
0.6943935669675032
 31
0.0
  0
LINE
  5
492
330
1F
100
AcDbEntity
  8
0
  6
K5LT32786
 62
     7
370
    18
100
AcDbLine
 10
34.59934244413513
 20
7.272241912468862
 30
0.0
 11
34.4283323724723
 21
7.742088222861816
 31
0.0
  0
LINE
  5
493
330
1F
100
AcDbEntity
  8
0
  6
K5LT32786
 62
     7
370
    18
100
AcDbLine
 10
32.03419136919261
 20
14.31993656836318
 30
0.0
 11
31.86318129752978
 21
14.78978287875613
 31
0.0
  0
LINE
  5
494
330
1F
100
AcDbEntity
  8
0
  6
K5LT32786
 62
     7
370
    18
100
AcDbLine
 10
29.4690402942501
 20
21.36763122425749
 30
0.0
 11
29.29803022258726
 21
21.83747753465044
 31
0.0
  0
LINE
  5
495
330
1F
100
AcDbEntity
  8
0
  6
K5LT32786
 62
     7
370
    18
100
AcDbLine
 10
26.90388921930758
 20
28.4153258801518
 30
0.0
 11
26.73287914764474
 21
28.88517219054475
 31
0.0
  0
LINE
  5
496
330
1F
100
AcDbEntity
  8
0
  6
K5LT32786
 62
     7
370
    18
100
AcDbLine
 10
24.33873814436506
 20
35.46302053604612
 30
0.0
 11
24.16772807270223
 21
35.93286684643907
 31
0.0
  0
LINE
  5
497
330
1F
100
AcDbEntity
  8
0
  6
K5LT32786
 62
     7
370
    18
100
AcDbLine
 10
21.77358706942255
 20
42.51071519194043
 30
0.0
 11
21.60257699775971
 21
42.98056150233338
 31
0.0
  0
LINE
  5
498
330
1F
100
AcDbEntity
  8
0
  6
K5LT32786
 62
     7
370
    18
100
AcDbLine
 10
19.20843599448003
 20
49.55840984783474
 30
0.0
 11
19.0374259228172
 21
50.02825615822769
 31
0.0
  0
LINE
  5
499
330
1F
100
AcDbEntity
  8
0
  6
K5LT32786
 62
     7
370
    18
100
AcDbLine
 10
16.64328491953751
 20
56.60610450372905
 30
0.0
 11
16.47227484787468
 21
57.075950814122
 31
0.0
  0
LINE
  5
49A
330
1F
100
AcDbEntity
  8
0
  6
K5LT32786
 62
     7
370
    18
100
AcDbLine
 10
14.078133844595
 20
63.65379915962336
 30
0.0
 11
13.90712377293216
 21
64.12364547001631
 31
0.0
  0
LINE
  5
49B
330
1F
100
AcDbEntity
  8
0
  6
K5LT32786
 62
     7
370
    18
100
AcDbLine
 10
11.51298276965248
 20
70.70149381551768
 30
0.0
 11
11.34197269798965
 21
71.17134012591063
 31
0.0
  0
LINE
  5
49C
330
1F
100
AcDbEntity
  8
0
  6
K5LT32786
 62
     7
370
    18
100
AcDbLine
 10
8.947831694709969
 20
77.749188471412
 30
0.0
 11
8.776821623047134
 21
78.21903478180495
 31
0.0
  0
LINE
  5
49D
330
1F
100
AcDbEntity
  8
0
  6
K5LT32786
 62
     7
370
    18
100
AcDbLine
 10
6.382680619767454
 20
84.79688312730632
 30
0.0
 11
6.211670548104619
 21
85.26672943769927
 31
0.0
  0
LINE
  5
49E
330
1F
100
AcDbEntity
  8
0
  6
K5LT32786
 62
     7
370
    18
100
AcDbLine
 10
3.817529544824938
 20
91.84457778320063
 30
0.0
 11
3.646519473162104
 21
92.31442409359359
 31
0.0
  0
LINE
  5
49F
330
1F
100
AcDbEntity
  8
0
  6
K5LT32786
 62
     7
370
    18
100
AcDbLine
 10
1.252378469882423
 20
98.89227243909494
 30
0.0
 11
1.081368398219589
 21
99.36211874948789
 31
0.0
  0
LINE
  5
4A0
330
1F
100
AcDbEntity
  8
0
  6
K5LT32786
 62
     7
370
    18
100
AcDbLine
 10
29.21856460027362
 20
1.589176736438499
 30
0.0
 11
29.04755452861079
 21
2.059023046831454
 31
0.0
  0
LINE
  5
4A1
330
1F
100
AcDbEntity
  8
0
  6
K5LT32786
 62
     7
370
    18
100
AcDbLine
 10
26.6534135253311
 20
8.636871392332813
 30
0.0
 11
26.48240345366827
 21
9.106717702725767
 31
0.0
  0
LINE
  5
4A2
330
1F
100
AcDbEntity
  8
0
  6
K5LT32786
 62
     7
370
    18
100
AcDbLine
 10
24.08826245038859
 20
15.68456604822713
 30
0.0
 11
23.91725237872575
 21
16.15441235862008
 31
0.0
  0
LINE
  5
4A3
330
1F
100
AcDbEntity
  8
0
  6
K5LT32786
 62
     7
370
    18
100
AcDbLine
 10
21.52311137544607
 20
22.73226070412144
 30
0.0
 11
21.35210130378324
 21
23.20210701451439
 31
0.0
  0
LINE
  5
4A4
330
1F
100
AcDbEntity
  8
0
  6
K5LT32786
 62
     7
370
    18
100
AcDbLine
 10
18.95796030050355
 20
29.77995536001575
 30
0.0
 11
18.78695022884072
 21
30.2498016704087
 31
0.0
  0
LINE
  5
4A5
330
1F
100
AcDbEntity
  8
0
  6
K5LT32786
 62
     7
370
    18
100
AcDbLine
 10
16.39280922556104
 20
36.82765001591006
 30
0.0
 11
16.2217991538982
 21
37.29749632630301
 31
0.0
  0
LINE
  5
4A6
330
1F
100
AcDbEntity
  8
0
  6
K5LT32786
 62
     7
370
    18
100
AcDbLine
 10
13.82765815061852
 20
43.87534467180437
 30
0.0
 11
13.65664807895569
 21
44.34519098219732
 31
0.0
  0
LINE
  5
4A7
330
1F
100
AcDbEntity
  8
0
  6
K5LT32786
 62
     7
370
    18
100
AcDbLine
 10
11.26250707567601
 20
50.92303932769868
 30
0.0
 11
11.09149700401317
 21
51.39288563809163
 31
0.0
  0
LINE
  5
4A8
330
1F
100
AcDbEntity
  8
0
  6
K5LT32786
 62
     7
370
    18
100
AcDbLine
 10
8.697356000733494
 20
57.97073398359299
 30
0.0
 11
8.52634592907066
 21
58.44058029398595
 31
0.0
  0
LINE
  5
4A9
330
1F
100
AcDbEntity
  8
0
  6
K5LT32786
 62
     7
370
    18
100
AcDbLine
 10
6.13220492579098
 20
65.01842863948731
 30
0.0
 11
5.961194854128145
 21
65.48827494988026
 31
0.0
  0
LINE
  5
4AA
330
1F
100
AcDbEntity
  8
0
  6
K5LT32786
 62
     7
370
    18
100
AcDbLine
 10
3.567053850848465
 20
72.06612329538163
 30
0.0
 11
3.396043779185631
 21
72.53596960577458
 31
0.0
  0
LINE
  5
4AB
330
1F
100
AcDbEntity
  8
0
  6
K5LT32786
 62
     7
370
    18
100
AcDbLine
 10
1.001902775905952
 20
79.11381795127595
 30
0.0
 11
0.8308927042431176
 21
79.5836642616689
 31
0.0
  0
LINE
  5
4AC
330
1F
100
AcDbEntity
  8
0
  6
K5LT32786
 62
     7
370
    18
100
AcDbLine
 10
21.27263568146958
 20
2.953806216302456
 30
0.0
 11
21.10162560980675
 21
3.42365252669541
 31
0.0
  0
LINE
  5
4AD
330
1F
100
AcDbEntity
  8
0
  6
K5LT32786
 62
     7
370
    18
100
AcDbLine
 10
18.70748460652707
 20
10.00150087219677
 30
0.0
 11
18.53647453486423
 21
10.47134718258972
 31
0.0
  0
LINE
  5
4AE
330
1F
100
AcDbEntity
  8
0
  6
K5LT32786
 62
     7
370
    18
100
AcDbLine
 10
16.14233353158455
 20
17.04919552809108
 30
0.0
 11
15.97132345992172
 21
17.51904183848404
 31
0.0
  0
LINE
  5
4AF
330
1F
100
AcDbEntity
  8
0
  6
K5LT32786
 62
     7
370
    18
100
AcDbLine
 10
13.57718245664203
 20
24.09689018398539
 30
0.0
 11
13.4061723849792
 21
24.56673649437835
 31
0.0
  0
LINE
  5
4B0
330
1F
100
AcDbEntity
  8
0
  6
K5LT32786
 62
     7
370
    18
100
AcDbLine
 10
11.01203138169952
 20
31.14458483987971
 30
0.0
 11
10.84102131003668
 21
31.61443115027266
 31
0.0
  0
LINE
  5
4B1
330
1F
100
AcDbEntity
  8
0
  6
K5LT32786
 62
     7
370
    18
100
AcDbLine
 10
8.446880306757004
 20
38.19227949577402
 30
0.0
 11
8.27587023509417
 21
38.66212580616698
 31
0.0
  0
LINE
  5
4B2
330
1F
100
AcDbEntity
  8
0
  6
K5LT32786
 62
     7
370
    18
100
AcDbLine
 10
5.881729231814489
 20
45.23997415166833
 30
0.0
 11
5.710719160151655
 21
45.70982046206129
 31
0.0
  0
LINE
  5
4B3
330
1F
100
AcDbEntity
  8
0
  6
K5LT32786
 62
     7
370
    18
100
AcDbLine
 10
3.316578156871974
 20
52.28766880756265
 30
0.0
 11
3.14556808520914
 21
52.75751511795561
 31
0.0
  0
LINE
  5
4B4
330
1F
100
AcDbEntity
  8
0
  6
K5LT32786
 62
     7
370
    18
100
AcDbLine
 10
0.7514270819294588
 20
59.33536346345697
 30
0.0
 11
0.5804170102666245
 21
59.80520977384992
 31
0.0
  0
LINE
  5
4B5
330
1F
100
AcDbEntity
  8
0
  6
K5LT32786
 62
     7
370
    18
100
AcDbLine
 10
13.32670676266555
 20
4.318435696166406
 30
0.0
 11
13.15569669100272
 21
4.788282006559361
 31
0.0
  0
LINE
  5
4B6
330
1F
100
AcDbEntity
  8
0
  6
K5LT32786
 62
     7
370
    18
100
AcDbLine
 10
10.76155568772304
 20
11.36613035206072
 30
0.0
 11
10.5905456160602
 21
11.83597666245367
 31
0.0
  0
LINE
  5
4B7
330
1F
100
AcDbEntity
  8
0
  6
K5LT32786
 62
     7
370
    18
100
AcDbLine
 10
8.196404612780523
 20
18.41382500795503
 30
0.0
 11
8.025394541117688
 21
18.88367131834799
 31
0.0
  0
LINE
  5
4B8
330
1F
100
AcDbEntity
  8
0
  6
K5LT32786
 62
     7
370
    18
100
AcDbLine
 10
5.631253537838006
 20
25.46151966384934
 30
0.0
 11
5.460243466175172
 21
25.9313659742423
 31
0.0
  0
LINE
  5
4B9
330
1F
100
AcDbEntity
  8
0
  6
K5LT32786
 62
     7
370
    18
100
AcDbLine
 10
3.066102462895491
 20
32.50921431974366
 30
0.0
 11
2.895092391232657
 21
32.97906063013661
 31
0.0
  0
LINE
  5
4BA
330
1F
100
AcDbEntity
  8
0
  6
K5LT32786
 62
     7
370
    18
100
AcDbLine
 10
0.5009513879529761
 20
39.55690897563797
 30
0.0
 11
0.3299413162901419
 21
40.02675528603092
 31
0.0
  0
LINE
  5
4BB
330
1F
100
AcDbEntity
  8
0
  6
K5LT32786
 62
     7
370
    18
100
AcDbLine
 10
5.380777843861519
 20
5.68306517603036
 30
0.0
 11
5.209767772198684
 21
6.152911486423315
 31
0.0
  0
LINE
  5
4BC
330
1F
100
AcDbEntity
  8
0
  6
K5LT32786
 62
     7
370
    18
100
AcDbLine
 10
2.815626768919004
 20
12.73075983192467
 30
0.0
 11
2.644616697256169
 21
13.20060614231763
 31
0.0
  0
LINE
  5
4BD
330
1F
100
AcDbEntity
  8
0
  6
K5LT32786
 62
     7
370
    18
100
AcDbLine
 10
0.2504756939764894
 20
19.77845448781898
 30
0.0
 11
0.079465622313655
 21
20.24830079821194
 31
0.0
  0
ENDSEC
  0
SECTION
  2
OBJECTS
  0
DICTIONARY
  5
C
330
0
100
AcDbDictionary
281
     1
  3
ACAD_GROUP
350
D
  3
ACAD_LAYOUT
350
1A
  3
ACAD_MATERIAL
350
3B
  3
ACAD_MLEADERSTYLE
350
503
  3
ACAD_MLINESTYLE
350
17
  3
ACAD_PLOTSETTINGS
350
19
  3
ACAD_PLOTSTYLENAME
350
E
  3
ACAD_SCALELIST
350
4BE
  3
ACAD_TABLESTYLE
350
502
  3
ACAD_VISUALSTYLE
350
2A
  3
AcDbVariableDictionary
350
4E0
  0
DICTIONARY
  5
D
102
{ACAD_REACTORS
330
C
102
}
330
C
100
AcDbDictionary
281
     1
  0
DICTIONARY
  5
1A
102
{ACAD_REACTORS
330
C
102
}
330
C
100
AcDbDictionary
281
     1
  3
Layout1
350
1E
  3
Layout2
350
26
  3
Model
350
22
  0
DICTIONARY
  5
3B
102
{ACAD_REACTORS
330
C
102
}
330
C
100
AcDbDictionary
281
     1
  3
ByBlock
350
3D
  3
ByLayer
350
3C
  3
Global
350
3E
  0
DICTIONARY
  5
503
102
{ACAD_REACTORS
330
C
102
}
330
C
100
AcDbDictionary
281
     1
  0
DICTIONARY
  5
17
102
{ACAD_REACTORS
330
C
102
}
330
C
100
AcDbDictionary
281
     1
  3
Standard
350
18
  0
DICTIONARY
  5
19
102
{ACAD_REACTORS
330
C
102
}
330
C
100
AcDbDictionary
281
     1
  0
ACDBDICTIONARYWDFLT
  5
E
102
{ACAD_REACTORS
330
C
102
}
330
C
100
AcDbDictionary
281
     1
  3
Normal
350
F
100
AcDbDictionaryWithDefault
340
F
  0
DICTIONARY
  5
4BE
102
{ACAD_REACTORS
330
C
102
}
330
C
100
AcDbDictionary
281
     1
  3
A0
350
4BF
  3
A1
350
4C0
  3
A2
350
4C1
  3
A3
350
4C2
  3
A4
350
4C3
  3
A5
350
4C4
  3
A6
350
4C5
  3
A7
350
4C6
  3
A8
350
4C7
  3
A9
350
4C8
  3
B0
350
4C9
  3
B1
350
4CA
  3
B2
350
4CB
  3
B3
350
4CC
  3
B4
350
4CD
  3
B5
350
4CE
  3
B6
350
4CF
  3
B7
350
4D0
  3
B8
350
4D1
  3
B9
350
4D2
  3
C0
350
4D3
  3
C1
350
4D4
  3
C2
350
4D5
  3
C3
350
4D6
  3
C4
350
4D7
  3
C5
350
4D8
  3
C6
350
4D9
  3
C7
350
4DA
  3
C8
350
4DB
  3
C9
350
4DC
  3
D0
350
4DD
  3
D1
350
4DE
  3
D2
350
4DF
  0
DICTIONARY
  5
502
102
{ACAD_REACTORS
330
C
102
}
330
C
100
AcDbDictionary
281
     1
  0
DICTIONARY
  5
2A
102
{ACAD_REACTORS
330
C
102
}
330
C
100
AcDbDictionary
281
     1
  3
2dWireframe
350
2F
  3
3D Hidden
350
31
  3
3dWireframe
350
30
  3
Basic
350
32
  3
Brighten
350
36
  3
ColorChange
350
3A
  3
Conceptual
350
34
  3
Dim
350
35
  3
Facepattern
350
39
  3
Flat
350
2B
  3
FlatWithEdges
350
2C
  3
Gouraud
350
2D
  3
GouraudWithEdges
350
2E
  3
Linepattern
350
38
  3
Realistic
350
33
  3
Thicken
350
37
  0
DICTIONARY
  5
4E0
102
{ACAD_REACTORS
330
C
102
}
330
C
100
AcDbDictionary
281
     1
  3
CANNOSCALE
350
4E1
  0
LAYOUT
  5
1E
102
{ACAD_REACTORS
330
1A
102
}
330
1A
100
AcDbPlotSettings
  1

  2
none_device
  4

  6

 40
0.0
 41
0.0
 42
0.0
 43
0.0
 44
0.0
 45
0.0
 46
0.0
 47
0.0
 48
0.0
 49
0.0
140
0.0
141
0.0
142
1.0
143
1.0
 70
   688
 72
     0
 73
     0
 74
     5
  7

 75
    16
 76
     0
 77
     2
 78
   300
147
1.0
148
0.0
149
0.0
100
AcDbLayout
  1
Layout1
 70
     1
 71
     1
 10
0.0
 20
0.0
 11
420.0
 21
297.0
 12
0.0
 22
0.0
 32
0.0
 14
1.000000000000000E+20
 24
1.000000000000000E+20
 34
1.000000000000000E+20
 15
-1.000000000000000E+20
 25
-1.000000000000000E+20
 35
-1.000000000000000E+20
146
0.0
 13
0.0
 23
0.0
 33
0.0
 16
1.0
 26
0.0
 36
0.0
 17
0.0
 27
1.0
 37
0.0
 76
     0
330
1B
  0
LAYOUT
  5
26
102
{ACAD_REACTORS
330
1A
102
}
330
1A
100
AcDbPlotSettings
  1

  2
none_device
  4

  6

 40
0.0
 41
0.0
 42
0.0
 43
0.0
 44
0.0
 45
0.0
 46
0.0
 47
0.0
 48
0.0
 49
0.0
140
0.0
141
0.0
142
1.0
143
1.0
 70
   688
 72
     0
 73
     0
 74
     5
  7

 75
    16
 76
     0
 77
     2
 78
   300
147
1.0
148
0.0
149
0.0
100
AcDbLayout
  1
Layout2
 70
     1
 71
     2
 10
0.0
 20
0.0
 11
0.0
 21
0.0
 12
0.0
 22
0.0
 32
0.0
 14
0.0
 24
0.0
 34
0.0
 15
0.0
 25
0.0
 35
0.0
146
0.0
 13
0.0
 23
0.0
 33
0.0
 16
1.0
 26
0.0
 36
0.0
 17
0.0
 27
1.0
 37
0.0
 76
     0
330
23
  0
LAYOUT
  5
22
102
{ACAD_REACTORS
330
1A
102
}
330
1A
100
AcDbPlotSettings
  1

  2
none_device
  4

  6

 40
0.0
 41
0.0
 42
0.0
 43
0.0
 44
0.0
 45
0.0
 46
0.0
 47
0.0
 48
0.0
 49
0.0
140
0.0
141
0.0
142
1.0
143
1.0
 70
  1712
 72
     0
 73
     0
 74
     0
  7

 75
     0
 76
     0
 77
     2
 78
   300
147
1.0
148
0.0
149
0.0
100
AcDbLayout
  1
Model
 70
     1
 71
     0
 10
0.0
 20
0.0
 11
420.0
 21
297.0
 12
0.0
 22
0.0
 32
0.0
 14
1.000000000000000E+20
 24
1.000000000000000E+20
 34
1.000000000000000E+20
 15
-1.000000000000000E+20
 25
-1.000000000000000E+20
 35
-1.000000000000000E+20
146
0.0
 13
0.0
 23
0.0
 33
0.0
 16
1.0
 26
0.0
 36
0.0
 17
0.0
 27
1.0
 37
0.0
 76
     0
330
1F
331
29
  0
MATERIAL
  5
3D
102
{ACAD_REACTORS
330
3B
102
}
330
3B
100
AcDbMaterial
  1
ByBlock
 72
     1
 94
      127
  0
MATERIAL
  5
3C
102
{ACAD_REACTORS
330
3B
102
}
330
3B
100
AcDbMaterial
  1
ByLayer
 72
     1
 94
      127
  0
MATERIAL
  5
3E
102
{ACAD_REACTORS
330
3B
102
}
330
3B
100
AcDbMaterial
  1
Global
 72
     1
 94
      127
  0
MLINESTYLE
  5
18
102
{ACAD_REACTORS
330
17
102
}
330
17
100
AcDbMlineStyle
  2
Standard
 70
     0
  3

 62
   256
 51
90.0
 52
90.0
 71
     2
 49
0.5
 62
   256
  6
BYLAYER
 49
-0.5
 62
   256
  6
BYLAYER
  0
ACDBPLACEHOLDER
  5
F
102
{ACAD_REACTORS
330
E
102
}
330
E
  0
SCALE
  5
4BF
102
{ACAD_REACTORS
330
4BE
102
}
330
4BE
100
AcDbScale
 70
     0
300
1:1
140
1.0
141
1.0
290
     1
  0
SCALE
  5
4C0
102
{ACAD_REACTORS
330
4BE
102
}
330
4BE
100
AcDbScale
 70
     0
300
1:2
140
1.0
141
2.0
290
     0
  0
SCALE
  5
4C1
102
{ACAD_REACTORS
330
4BE
102
}
330
4BE
100
AcDbScale
 70
     0
300
1:4
140
1.0
141
4.0
290
     0
  0
SCALE
  5
4C2
102
{ACAD_REACTORS
330
4BE
102
}
330
4BE
100
AcDbScale
 70
     0
300
1:5
140
1.0
141
5.0
290
     0
  0
SCALE
  5
4C3
102
{ACAD_REACTORS
330
4BE
102
}
330
4BE
100
AcDbScale
 70
     0
300
1:8
140
1.0
141
8.0
290
     0
  0
SCALE
  5
4C4
102
{ACAD_REACTORS
330
4BE
102
}
330
4BE
100
AcDbScale
 70
     0
300
1:10
140
1.0
141
10.0
290
     0
  0
SCALE
  5
4C5
102
{ACAD_REACTORS
330
4BE
102
}
330
4BE
100
AcDbScale
 70
     0
300
1:16
140
1.0
141
16.0
290
     0
  0
SCALE
  5
4C6
102
{ACAD_REACTORS
330
4BE
102
}
330
4BE
100
AcDbScale
 70
     0
300
1:20
140
1.0
141
20.0
290
     0
  0
SCALE
  5
4C7
102
{ACAD_REACTORS
330
4BE
102
}
330
4BE
100
AcDbScale
 70
     0
300
1:30
140
1.0
141
30.0
290
     0
  0
SCALE
  5
4C8
102
{ACAD_REACTORS
330
4BE
102
}
330
4BE
100
AcDbScale
 70
     0
300
1:40
140
1.0
141
40.0
290
     0
  0
SCALE
  5
4C9
102
{ACAD_REACTORS
330
4BE
102
}
330
4BE
100
AcDbScale
 70
     0
300
1:50
140
1.0
141
50.0
290
     0
  0
SCALE
  5
4CA
102
{ACAD_REACTORS
330
4BE
102
}
330
4BE
100
AcDbScale
 70
     0
300
1:100
140
1.0
141
100.0
290
     0
  0
SCALE
  5
4CB
102
{ACAD_REACTORS
330
4BE
102
}
330
4BE
100
AcDbScale
 70
     0
300
2:1
140
2.0
141
1.0
290
     0
  0
SCALE
  5
4CC
102
{ACAD_REACTORS
330
4BE
102
}
330
4BE
100
AcDbScale
 70
     0
300
4:1
140
4.0
141
1.0
290
     0
  0
SCALE
  5
4CD
102
{ACAD_REACTORS
330
4BE
102
}
330
4BE
100
AcDbScale
 70
     0
300
8:1
140
8.0
141
1.0
290
     0
  0
SCALE
  5
4CE
102
{ACAD_REACTORS
330
4BE
102
}
330
4BE
100
AcDbScale
 70
     0
300
10:1
140
10.0
141
1.0
290
     0
  0
SCALE
  5
4CF
102
{ACAD_REACTORS
330
4BE
102
}
330
4BE
100
AcDbScale
 70
     0
300
100:1
140
100.0
141
1.0
290
     0
  0
SCALE
  5
4D0
102
{ACAD_REACTORS
330
4BE
102
}
330
4BE
100
AcDbScale
 70
     0
300
1/128" = 1'-0"
140
0.0078125
141
12.0
290
     0
  0
SCALE
  5
4D1
102
{ACAD_REACTORS
330
4BE
102
}
330
4BE
100
AcDbScale
 70
     0
300
1/64" = 1'-0"
140
0.015625
141
12.0
290
     0
  0
SCALE
  5
4D2
102
{ACAD_REACTORS
330
4BE
102
}
330
4BE
100
AcDbScale
 70
     0
300
1/32" = 1'-0"
140
0.03125
141
12.0
290
     0
  0
SCALE
  5
4D3
102
{ACAD_REACTORS
330
4BE
102
}
330
4BE
100
AcDbScale
 70
     0
300
1/16" = 1'-0"
140
0.0625
141
12.0
290
     0
  0
SCALE
  5
4D4
102
{ACAD_REACTORS
330
4BE
102
}
330
4BE
100
AcDbScale
 70
     0
300
3/32" = 1'-0"
140
0.09375
141
12.0
290
     0
  0
SCALE
  5
4D5
102
{ACAD_REACTORS
330
4BE
102
}
330
4BE
100
AcDbScale
 70
     0
300
1/8" = 1'-0"
140
0.125
141
12.0
290
     0
  0
SCALE
  5
4D6
102
{ACAD_REACTORS
330
4BE
102
}
330
4BE
100
AcDbScale
 70
     0
300
3/16" = 1'-0"
140
0.1875
141
12.0
290
     0
  0
SCALE
  5
4D7
102
{ACAD_REACTORS
330
4BE
102
}
330
4BE
100
AcDbScale
 70
     0
300
1/4" = 1'-0"
140
0.25
141
12.0
290
     0
  0
SCALE
  5
4D8
102
{ACAD_REACTORS
330
4BE
102
}
330
4BE
100
AcDbScale
 70
     0
300
3/8" = 1'-0"
140
0.375
141
12.0
290
     0
  0
SCALE
  5
4D9
102
{ACAD_REACTORS
330
4BE
102
}
330
4BE
100
AcDbScale
 70
     0
300
1/2" = 1'-0"
140
0.5
141
12.0
290
     0
  0
SCALE
  5
4DA
102
{ACAD_REACTORS
330
4BE
102
}
330
4BE
100
AcDbScale
 70
     0
300
3/4" = 1'-0"
140
0.75
141
12.0
290
     0
  0
SCALE
  5
4DB
102
{ACAD_REACTORS
330
4BE
102
}
330
4BE
100
AcDbScale
 70
     0
300
1" = 1'-0"
140
1.0
141
12.0
290
     0
  0
SCALE
  5
4DC
102
{ACAD_REACTORS
330
4BE
102
}
330
4BE
100
AcDbScale
 70
     0
300
1-1/2" = 1'-0"
140
1.5
141
12.0
290
     0
  0
SCALE
  5
4DD
102
{ACAD_REACTORS
330
4BE
102
}
330
4BE
100
AcDbScale
 70
     0
300
3" = 1'-0"
140
3.0
141
12.0
290
     0
  0
SCALE
  5
4DE
102
{ACAD_REACTORS
330
4BE
102
}
330
4BE
100
AcDbScale
 70
     0
300
6" = 1'-0"
140
6.0
141
12.0
290
     0
  0
SCALE
  5
4DF
102
{ACAD_REACTORS
330
4BE
102
}
330
4BE
100
AcDbScale
 70
     0
300
1'-0" = 1'-0"
140
12.0
141
12.0
290
     0
  0
VISUALSTYLE
  5
2F
102
{ACAD_REACTORS
330
2A
102
}
102
{ACAD_XDICTIONARY
360
4EA
102
}
330
2A
100
AcDbVisualStyle
  2
2dWireframe
 70
     4
 71
     0
 72
     2
 73
     0
 90
        0
 40
-0.6
 41
-30.0
 62
     5
 63
     7
421
 16777215
 74
     1
 91
        4
 64
     7
 65
   257
 75
     1
175
     1
 42
1.0
 92
        0
 66
   257
 43
1.0
 76
     1
 77
     6
 78
     2
 67
     7
 79
     5
170
     0
171
     0
290
     0
174
     0
 93
        1
 44
0.0
173
     0
291
     0
 45
0.0
  0
VISUALSTYLE
  5
31
102
{ACAD_REACTORS
330
2A
102
}
102
{ACAD_XDICTIONARY
360
4EE
102
}
330
2A
100
AcDbVisualStyle
  2
3D Hidden
 70
     6
 71
     1
 72
     2
 73
     2
 90
        0
 40
-0.6
 41
-30.0
 62
     5
 63
     7
421
 16777215
 74
     2
 91
        2
 64
     7
 65
   257
 75
     2
175
     1
 42
40.0
 92
        0
 66
   257
 43
1.0
 76
     1
 77
     6
 78
     2
 67
     7
 79
     3
170
     0
171
     0
290
     0
174
     0
 93
        1
 44
0.0
173
     0
291
     0
 45
0.0
  0
VISUALSTYLE
  5
30
102
{ACAD_REACTORS
330
2A
102
}
102
{ACAD_XDICTIONARY
360
4EC
102
}
330
2A
100
AcDbVisualStyle
  2
3dWireframe
 70
     5
 71
     0
 72
     2
 73
     0
 90
        0
 40
-0.6
 41
-30.0
 62
     5
 63
     7
421
 16777215
 74
     1
 91
        4
 64
     7
 65
   257
 75
     1
175
     1
 42
1.0
 92
        0
 66
   257
 43
1.0
 76
     1
 77
     6
 78
     2
 67
     7
 79
     5
170
     0
171
     0
290
     0
174
     0
 93
        1
 44
0.0
173
     0
291
     0
 45
0.0
  0
VISUALSTYLE
  5
32
102
{ACAD_REACTORS
330
2A
102
}
102
{ACAD_XDICTIONARY
360
4F0
102
}
330
2A
100
AcDbVisualStyle
  2
Basic
 70
     7
 71
     1
 72
     0
 73
     1
 90
        0
 40
-0.6
 41
-30.0
 62
     5
 63
     7
421
 16777215
 74
     0
 91
        4
 64
     7
 65
   257
 75
     1
175
     1
 42
1.0
 92
        8
 66
     7
 43
1.0
 76
     1
 77
     6
 78
     2
 67
     7
 79
     5
170
     0
171
     0
290
     0
174
     0
 93
        1
 44
0.0
173
     0
291
     1
 45
0.0
  0
VISUALSTYLE
  5
36
102
{ACAD_REACTORS
330
2A
102
}
102
{ACAD_XDICTIONARY
360
4F8
102
}
330
2A
100
AcDbVisualStyle
  2
Brighten
 70
    12
 71
     2
 72
     2
 73
     0
 90
        0
 40
-0.6
 41
-30.0
 62
     5
 63
     7
421
 16777215
 74
     1
 91
        4
 64
     7
 65
   257
 75
     1
175
     1
 42
1.0
 92
        8
 66
     7
 43
1.0
 76
     1
 77
     6
 78
     2
 67
     7
 79
     5
170
     0
171
     0
290
     0
174
     0
 93
        1
 44
50.0
173
     0
291
     1
 45
0.0
  0
VISUALSTYLE
  5
3A
102
{ACAD_REACTORS
330
2A
102
}
102
{ACAD_XDICTIONARY
360
500
102
}
330
2A
100
AcDbVisualStyle
  2
ColorChange
 70
    16
 71
     2
 72
     2
 73
     3
 90
        0
 40
-0.6
 41
-30.0
 62
     5
 63
     8
421
  8421504
 74
     1
 91
        4
 64
     7
 65
   257
 75
     1
175
     1
 42
1.0
 92
        8
 66
     8
424
  8421504
 43
1.0
 76
     1
 77
     6
 78
     2
 67
     7
 79
     5
170
     0
171
     0
290
     0
174
     0
 93
        1
 44
0.0
173
     0
291
     1
 45
0.0
  0
VISUALSTYLE
  5
34
102
{ACAD_REACTORS
330
2A
102
}
102
{ACAD_XDICTIONARY
360
4F4
102
}
330
2A
100
AcDbVisualStyle
  2
Conceptual
 70
     9
 71
     3
 72
     2
 73
     0
 90
        0
 40
-0.6
 41
-30.0
 62
     5
 63
     7
421
 16777215
 74
     2
 91
        2
 64
     7
 65
   257
 75
     1
175
     1
 42
40.0
 92
        8
 66
     7
 43
1.0
 76
     1
 77
     6
 78
     2
 67
     7
 79
     3
170
     0
171
     0
290
     0
174
     0
 93
        1
 44
0.0
173
     0
291
     0
 45
0.0
  0
VISUALSTYLE
  5
35
102
{ACAD_REACTORS
330
2A
102
}
102
{ACAD_XDICTIONARY
360
4F6
102
}
330
2A
100
AcDbVisualStyle
  2
Dim
 70
    11
 71
     2
 72
     2
 73
     0
 90
        0
 40
-0.6
 41
-30.0
 62
     5
 63
     7
421
 16777215
 74
     1
 91
        4
 64
     7
 65
   257
 75
     1
175
     1
 42
1.0
 92
        8
 66
     7
 43
1.0
 76
     1
 77
     6
 78
     2
 67
     7
 79
     5
170
     0
171
     0
290
     0
174
     0
 93
        1
 44
-50.0
173
     0
291
     1
 45
0.0
  0
VISUALSTYLE
  5
39
102
{ACAD_REACTORS
330
2A
102
}
102
{ACAD_XDICTIONARY
360
4FE
102
}
330
2A
100
AcDbVisualStyle
  2
Facepattern
 70
    15
 71
     2
 72
     2
 73
     0
 90
        0
 40
-0.6
 41
-30.0
 62
     5
 63
     7
421
 16777215
 74
     1
 91
        4
 64
     7
 65
   257
 75
     1
175
     1
 42
1.0
 92
        8
 66
     7
 43
1.0
 76
     1
 77
     6
 78
     2
 67
     7
 79
     5
170
     0
171
     0
290
     0
174
     0
 93
        1
 44
0.0
173
     0
291
     1
 45
0.0
  0
VISUALSTYLE
  5
2B
102
{ACAD_REACTORS
330
2A
102
}
102
{ACAD_XDICTIONARY
360
4E2
102
}
330
2A
100
AcDbVisualStyle
  2
Flat
 70
     0
 71
     2
 72
     1
 73
     1
 90
        2
 40
-0.6
 41
30.0
 62
     5
 63
     7
421
 16777215
 74
     0
 91
        4
 64
     7
 65
   257
 75
     1
175
     1
 42
1.0
 92
        8
 66
     7
 43
1.0
 76
     1
 77
     6
 78
     2
 67
     7
 79
     5
170
     0
171
     0
290
     0
174
     0
 93
       13
 44
0.0
173
     0
291
     1
 45
0.0
  0
VISUALSTYLE
  5
2C
102
{ACAD_REACTORS
330
2A
102
}
102
{ACAD_XDICTIONARY
360
4E4
102
}
330
2A
100
AcDbVisualStyle
  2
FlatWithEdges
 70
     1
 71
     2
 72
     1
 73
     1
 90
        2
 40
-0.6
 41
30.0
 62
     5
 63
     7
421
 16777215
 74
     1
 91
        4
 64
     7
 65
   257
 75
     1
175
     1
 42
1.0
 92
        0
 66
   257
 43
1.0
 76
     1
 77
     6
 78
     2
 67
     7
 79
     5
170
     0
171
     0
290
     0
174
     0
 93
       13
 44
0.0
173
     0
291
     1
 45
0.0
  0
VISUALSTYLE
  5
2D
102
{ACAD_REACTORS
330
2A
102
}
102
{ACAD_XDICTIONARY
360
4E6
102
}
330
2A
100
AcDbVisualStyle
  2
Gouraud
 70
     2
 71
     2
 72
     2
 73
     1
 90
        2
 40
-0.6
 41
30.0
 62
     5
 63
     7
421
 16777215
 74
     0
 91
        4
 64
     7
 65
   257
 75
     1
175
     1
 42
1.0
 92
        0
 66
     7
 43
1.0
 76
     1
 77
     6
 78
     2
 67
     7
 79
     5
170
     0
171
     0
290
     0
174
     0
 93
       13
 44
0.0
173
     0
291
     1
 45
0.0
  0
VISUALSTYLE
  5
2E
102
{ACAD_REACTORS
330
2A
102
}
102
{ACAD_XDICTIONARY
360
4E8
102
}
330
2A
100
AcDbVisualStyle
  2
GouraudWithEdges
 70
     3
 71
     2
 72
     2
 73
     1
 90
        2
 40
-0.6
 41
30.0
 62
     5
 63
     7
421
 16777215
 74
     1
 91
        4
 64
     7
 65
   257
 75
     1
175
     1
 42
1.0
 92
        0
 66
   257
 43
1.0
 76
     1
 77
     6
 78
     2
 67
     7
 79
     5
170
     0
171
     0
290
     0
174
     0
 93
       13
 44
0.0
173
     0
291
     1
 45
0.0
  0
VISUALSTYLE
  5
38
102
{ACAD_REACTORS
330
2A
102
}
102
{ACAD_XDICTIONARY
360
4FC
102
}
330
2A
100
AcDbVisualStyle
  2
Linepattern
 70
    14
 71
     2
 72
     2
 73
     0
 90
        0
 40
-0.6
 41
-30.0
 62
     5
 63
     7
421
 16777215
 74
     1
 91
        4
 64
     7
 65
   257
 75
     7
175
     7
 42
1.0
 92
        8
 66
     7
 43
1.0
 76
     1
 77
     6
 78
     2
 67
     7
 79
     5
170
     0
171
     0
290
     0
174
     0
 93
        1
 44
0.0
173
     0
291
     1
 45
0.0
  0
VISUALSTYLE
  5
33
102
{ACAD_REACTORS
330
2A
102
}
102
{ACAD_XDICTIONARY
360
4F2
102
}
330
2A
100
AcDbVisualStyle
  2
Realistic
 70
     8
 71
     2
 72
     2
 73
     0
 90
        0
 40
-0.6
 41
-30.0
 62
     5
 63
     7
421
 16777215
 74
     1
 91
        0
 64
     7
 65
   257
 75
     1
175
     1
 42
1.0
 92
        8
 66
     8
424
  7895160
 43
1.0
 76
     1
 77
     6
 78
     2
 67
     7
 79
     5
170
     0
171
     0
290
     0
174
     0
 93
       13
 44
0.0
173
     0
291
     0
 45
0.0
  0
VISUALSTYLE
  5
37
102
{ACAD_REACTORS
330
2A
102
}
102
{ACAD_XDICTIONARY
360
4FA
102
}
330
2A
100
AcDbVisualStyle
  2
Thicken
 70
    13
 71
     2
 72
     2
 73
     0
 90
        0
 40
-0.6
 41
-30.0
 62
     5
 63
     7
421
 16777215
 74
     1
 91
        4
 64
     7
 65
   257
 75
     1
175
     1
 42
1.0
 92
       12
 66
     7
 43
1.0
 76
     1
 77
     6
 78
     2
 67
     7
 79
     5
170
     0
171
     0
290
     0
174
     0
 93
        1
 44
0.0
173
     0
291
     1
 45
0.0
  0
DICTIONARYVAR
  5
4E1
102
{ACAD_REACTORS
330
4E0
102
}
330
4E0
100
DictionaryVariables
280
     0
  1
1:1
  0
DICTIONARY
  5
4EA
330
2F
100
AcDbDictionary
280
     1
281
     1
  3
ACAD_XREC_ROUNDTRIP
360
4EB
  0
DICTIONARY
  5
4EE
330
31
100
AcDbDictionary
280
     1
281
     1
  3
ACAD_XREC_ROUNDTRIP
360
4EF
  0
DICTIONARY
  5
4EC
330
30
100
AcDbDictionary
280
     1
281
     1
  3
ACAD_XREC_ROUNDTRIP
360
4ED
  0
DICTIONARY
  5
4F0
330
32
100
AcDbDictionary
280
     1
281
     1
  3
ACAD_XREC_ROUNDTRIP
360
4F1
  0
DICTIONARY
  5
4F8
330
36
100
AcDbDictionary
280
     1
281
     1
  3
ACAD_XREC_ROUNDTRIP
360
4F9
  0
DICTIONARY
  5
500
330
3A
100
AcDbDictionary
280
     1
281
     1
  3
ACAD_XREC_ROUNDTRIP
360
501
  0
DICTIONARY
  5
4F4
330
34
100
AcDbDictionary
280
     1
281
     1
  3
ACAD_XREC_ROUNDTRIP
360
4F5
  0
DICTIONARY
  5
4F6
330
35
100
AcDbDictionary
280
     1
281
     1
  3
ACAD_XREC_ROUNDTRIP
360
4F7
  0
DICTIONARY
  5
4FE
330
39
100
AcDbDictionary
280
     1
281
     1
  3
ACAD_XREC_ROUNDTRIP
360
4FF
  0
DICTIONARY
  5
4E2
330
2B
100
AcDbDictionary
280
     1
281
     1
  3
ACAD_XREC_ROUNDTRIP
360
4E3
  0
DICTIONARY
  5
4E4
330
2C
100
AcDbDictionary
280
     1
281
     1
  3
ACAD_XREC_ROUNDTRIP
360
4E5
  0
DICTIONARY
  5
4E6
330
2D
100
AcDbDictionary
280
     1
281
     1
  3
ACAD_XREC_ROUNDTRIP
360
4E7
  0
DICTIONARY
  5
4E8
330
2E
100
AcDbDictionary
280
     1
281
     1
  3
ACAD_XREC_ROUNDTRIP
360
4E9
  0
DICTIONARY
  5
4FC
330
38
100
AcDbDictionary
280
     1
281
     1
  3
ACAD_XREC_ROUNDTRIP
360
4FD
  0
DICTIONARY
  5
4F2
330
33
100
AcDbDictionary
280
     1
281
     1
  3
ACAD_XREC_ROUNDTRIP
360
4F3
  0
DICTIONARY
  5
4FA
330
37
100
AcDbDictionary
280
     1
281
     1
  3
ACAD_XREC_ROUNDTRIP
360
4FB
  0
XRECORD
  5
4EB
102
{ACAD_REACTORS
330
4EA
102
}
330
4EA
100
AcDbXrecord
280
     1
102
RTVSPropertyOp0
 70
     1
102
RTVSPropertyOp1
 70
     1
102
RTVSPropertyOp2
 70
     1
102
RTVSPropertyOp3
 70
     1
102
RTVSPropertyOp4
 70
     1
102
RTVSPropertyOp5
 70
     1
102
RTVSPropertyOp6
 70
     1
102
RTVSPropertyOp7
 70
     1
102
RTVSPropertyOp8
 70
     1
102
RTVSPropertyOp9
 70
     1
102
RTVSPropertyOp10
 70
     1
102
RTVSPropertyOp11
 70
     1
102
RTVSPropertyOp12
 70
     1
102
RTVSPropertyOp13
 70
     1
102
RTVSPropertyOp14
 70
     1
102
RTVSPropertyOp15
 70
     1
102
RTVSPropertyOp16
 70
     1
102
RTVSPropertyOp17
 70
     1
102
RTVSPropertyOp18
 70
     1
102
RTVSPropertyOp19
 70
     1
102
RTVSPropertyOp20
 70
     1
102
RTVSPropertyOp21
 70
     1
102
RTVSPropertyOp22
 70
     1
102
RTVSPropertyOp23
 70
     1
102
RTVSPropertyOp24
 70
     1
102
RTVSPropertyOp25
 70
     1
102
RTVSPropertyOp26
 70
     1
102
RTVSPropertyOp27
 70
     1
102
RTVSPropertyOp28
 70
     1
102
RTVSPropertyOp29
 70
     1
102
RTVSPropertyOp30
 70
     1
102
RTVSPropertyOp31
 70
     1
102
RTVSPropertyOp32
 70
     1
  0
XRECORD
  5
4EF
102
{ACAD_REACTORS
330
4EE
102
}
330
4EE
100
AcDbXrecord
280
     1
102
RTVSPropertyOp0
 70
     1
102
RTVSPropertyOp1
 70
     1
102
RTVSPropertyOp2
 70
     1
102
RTVSPropertyOp3
 70
     1
102
RTVSPropertyOp4
 70
     1
102
RTVSPropertyOp5
 70
     1
102
RTVSPropertyOp6
 70
     1
102
RTVSPropertyOp7
 70
     1
102
RTVSPropertyOp8
 70
     1
102
RTVSPropertyOp9
 70
     1
102
RTVSPropertyOp10
 70
     1
102
RTVSPropertyOp11
 70
     1
102
RTVSPropertyOp12
 70
     1
102
RTVSPropertyOp13
 70
     1
102
RTVSPropertyOp14
 70
     1
102
RTVSPropertyOp15
 70
     1
102
RTVSPropertyOp16
 70
     1
102
RTVSPropertyOp17
 70
     1
102
RTVSPropertyOp18
 70
     1
102
RTVSPropertyOp19
 70
     1
102
RTVSPropertyOp20
 70
     1
102
RTVSPropertyOp21
 70
     1
102
RTVSPropertyOp22
 70
     1
102
RTVSPropertyOp23
 70
     1
102
RTVSPropertyOp24
 70
     1
102
RTVSPropertyOp25
 70
     1
102
RTVSPropertyOp26
 70
     1
102
RTVSPropertyOp27
 70
     1
102
RTVSPropertyOp28
 70
     1
102
RTVSPropertyOp29
 70
     1
102
RTVSPropertyOp30
 70
     1
102
RTVSPropertyOp31
 70
     1
102
RTVSPropertyOp32
 70
     1
  0
XRECORD
  5
4ED
102
{ACAD_REACTORS
330
4EC
102
}
330
4EC
100
AcDbXrecord
280
     1
102
RTVSPropertyOp0
 70
     1
102
RTVSPropertyOp1
 70
     1
102
RTVSPropertyOp2
 70
     1
102
RTVSPropertyOp3
 70
     1
102
RTVSPropertyOp4
 70
     1
102
RTVSPropertyOp5
 70
     1
102
RTVSPropertyOp6
 70
     1
102
RTVSPropertyOp7
 70
     1
102
RTVSPropertyOp8
 70
     1
102
RTVSPropertyOp9
 70
     1
102
RTVSPropertyOp10
 70
     1
102
RTVSPropertyOp11
 70
     1
102
RTVSPropertyOp12
 70
     1
102
RTVSPropertyOp13
 70
     1
102
RTVSPropertyOp14
 70
     1
102
RTVSPropertyOp15
 70
     1
102
RTVSPropertyOp16
 70
     1
102
RTVSPropertyOp17
 70
     1
102
RTVSPropertyOp18
 70
     1
102
RTVSPropertyOp19
 70
     1
102
RTVSPropertyOp20
 70
     1
102
RTVSPropertyOp21
 70
     1
102
RTVSPropertyOp22
 70
     1
102
RTVSPropertyOp23
 70
     1
102
RTVSPropertyOp24
 70
     1
102
RTVSPropertyOp25
 70
     1
102
RTVSPropertyOp26
 70
     1
102
RTVSPropertyOp27
 70
     1
102
RTVSPropertyOp28
 70
     1
102
RTVSPropertyOp29
 70
     1
102
RTVSPropertyOp30
 70
     1
102
RTVSPropertyOp31
 70
     1
102
RTVSPropertyOp32
 70
     1
  0
XRECORD
  5
4F1
102
{ACAD_REACTORS
330
4F0
102
}
330
4F0
100
AcDbXrecord
280
     1
102
RTVSPropertyOp0
 70
     1
102
RTVSPropertyOp1
 70
     1
102
RTVSPropertyOp2
 70
     1
102
RTVSPropertyOp3
 70
     1
102
RTVSPropertyOp4
 70
     1
102
RTVSPropertyOp5
 70
     1
102
RTVSPropertyOp6
 70
     1
102
RTVSPropertyOp7
 70
     1
102
RTVSPropertyOp8
 70
     1
102
RTVSPropertyOp9
 70
     1
102
RTVSPropertyOp10
 70
     1
102
RTVSPropertyOp11
 70
     1
102
RTVSPropertyOp12
 70
     1
102
RTVSPropertyOp13
 70
     1
102
RTVSPropertyOp14
 70
     1
102
RTVSPropertyOp15
 70
     1
102
RTVSPropertyOp16
 70
     1
102
RTVSPropertyOp17
 70
     1
102
RTVSPropertyOp18
 70
     1
102
RTVSPropertyOp19
 70
     1
102
RTVSPropertyOp20
 70
     1
102
RTVSPropertyOp21
 70
     1
102
RTVSPropertyOp22
 70
     1
102
RTVSPropertyOp23
 70
     1
102
RTVSPropertyOp24
 70
     1
102
RTVSPropertyOp25
 70
     1
102
RTVSPropertyOp26
 70
     1
102
RTVSPropertyOp27
 70
     1
102
RTVSPropertyOp28
 70
     1
102
RTVSPropertyOp29
 70
     1
102
RTVSPropertyOp30
 70
     1
102
RTVSPropertyOp31
 70
     1
102
RTVSPropertyOp32
 70
     1
  0
XRECORD
  5
4F9
102
{ACAD_REACTORS
330
4F8
102
}
330
4F8
100
AcDbXrecord
280
     1
102
RTVSPropertyOp0
 70
     1
102
RTVSPropertyOp1
 70
     1
102
RTVSPropertyOp2
 70
     1
102
RTVSPropertyOp3
 70
     1
102
RTVSPropertyOp4
 70
     1
102
RTVSPropertyOp5
 70
     1
102
RTVSPropertyOp6
 70
     1
102
RTVSPropertyOp7
 70
     1
102
RTVSPropertyOp8
 70
     1
102
RTVSPropertyOp9
 70
     1
102
RTVSPropertyOp10
 70
     1
102
RTVSPropertyOp11
 70
     1
102
RTVSPropertyOp12
 70
     1
102
RTVSPropertyOp13
 70
     1
102
RTVSPropertyOp14
 70
     1
102
RTVSPropertyOp15
 70
     1
102
RTVSPropertyOp16
 70
     1
102
RTVSPropertyOp17
 70
     1
102
RTVSPropertyOp18
 70
     1
102
RTVSPropertyOp19
 70
     1
102
RTVSPropertyOp20
 70
     1
102
RTVSPropertyOp21
 70
     1
102
RTVSPropertyOp22
 70
     1
102
RTVSPropertyOp23
 70
     1
102
RTVSPropertyOp24
 70
     1
102
RTVSPropertyOp25
 70
     1
102
RTVSPropertyOp26
 70
     1
102
RTVSPropertyOp27
 70
     1
102
RTVSPropertyOp28
 70
     1
102
RTVSPropertyOp29
 70
     1
102
RTVSPropertyOp30
 70
     1
102
RTVSPropertyOp31
 70
     1
102
RTVSPropertyOp32
 70
     1
  0
XRECORD
  5
501
102
{ACAD_REACTORS
330
500
102
}
330
500
100
AcDbXrecord
280
     1
102
RTVSPropertyOp0
 70
     1
102
RTVSPropertyOp1
 70
     1
102
RTVSPropertyOp2
 70
     1
102
RTVSPropertyOp3
 70
     1
102
RTVSPropertyOp4
 70
     1
102
RTVSPropertyOp5
 70
     1
102
RTVSPropertyOp6
 70
     1
102
RTVSPropertyOp7
 70
     1
102
RTVSPropertyOp8
 70
     1
102
RTVSPropertyOp9
 70
     1
102
RTVSPropertyOp10
 70
     1
102
RTVSPropertyOp11
 70
     1
102
RTVSPropertyOp12
 70
     1
102
RTVSPropertyOp13
 70
     1
102
RTVSPropertyOp14
 70
     1
102
RTVSPropertyOp15
 70
     1
102
RTVSPropertyOp16
 70
     1
102
RTVSPropertyOp17
 70
     1
102
RTVSPropertyOp18
 70
     1
102
RTVSPropertyOp19
 70
     1
102
RTVSPropertyOp20
 70
     1
102
RTVSPropertyOp21
 70
     1
102
RTVSPropertyOp22
 70
     1
102
RTVSPropertyOp23
 70
     1
102
RTVSPropertyOp24
 70
     1
102
RTVSPropertyOp25
 70
     1
102
RTVSPropertyOp26
 70
     1
102
RTVSPropertyOp27
 70
     1
102
RTVSPropertyOp28
 70
     1
102
RTVSPropertyOp29
 70
     1
102
RTVSPropertyOp30
 70
     1
102
RTVSPropertyOp31
 70
     1
102
RTVSPropertyOp32
 70
     1
  0
XRECORD
  5
4F5
102
{ACAD_REACTORS
330
4F4
102
}
330
4F4
100
AcDbXrecord
280
     1
102
RTVSPropertyOp0
 70
     1
102
RTVSPropertyOp1
 70
     1
102
RTVSPropertyOp2
 70
     1
102
RTVSPropertyOp3
 70
     1
102
RTVSPropertyOp4
 70
     1
102
RTVSPropertyOp5
 70
     1
102
RTVSPropertyOp6
 70
     1
102
RTVSPropertyOp7
 70
     1
102
RTVSPropertyOp8
 70
     1
102
RTVSPropertyOp9
 70
     1
102
RTVSPropertyOp10
 70
     1
102
RTVSPropertyOp11
 70
     1
102
RTVSPropertyOp12
 70
     1
102
RTVSPropertyOp13
 70
     1
102
RTVSPropertyOp14
 70
     1
102
RTVSPropertyOp15
 70
     1
102
RTVSPropertyOp16
 70
     1
102
RTVSPropertyOp17
 70
     1
102
RTVSPropertyOp18
 70
     1
102
RTVSPropertyOp19
 70
     1
102
RTVSPropertyOp20
 70
     1
102
RTVSPropertyOp21
 70
     1
102
RTVSPropertyOp22
 70
     1
102
RTVSPropertyOp23
 70
     1
102
RTVSPropertyOp24
 70
     1
102
RTVSPropertyOp25
 70
     1
102
RTVSPropertyOp26
 70
     1
102
RTVSPropertyOp27
 70
     1
102
RTVSPropertyOp28
 70
     1
102
RTVSPropertyOp29
 70
     1
102
RTVSPropertyOp30
 70
     1
102
RTVSPropertyOp31
 70
     1
102
RTVSPropertyOp32
 70
     1
  0
XRECORD
  5
4F7
102
{ACAD_REACTORS
330
4F6
102
}
330
4F6
100
AcDbXrecord
280
     1
102
RTVSPropertyOp0
 70
     1
102
RTVSPropertyOp1
 70
     1
102
RTVSPropertyOp2
 70
     1
102
RTVSPropertyOp3
 70
     1
102
RTVSPropertyOp4
 70
     1
102
RTVSPropertyOp5
 70
     1
102
RTVSPropertyOp6
 70
     1
102
RTVSPropertyOp7
 70
     1
102
RTVSPropertyOp8
 70
     1
102
RTVSPropertyOp9
 70
     1
102
RTVSPropertyOp10
 70
     1
102
RTVSPropertyOp11
 70
     1
102
RTVSPropertyOp12
 70
     1
102
RTVSPropertyOp13
 70
     1
102
RTVSPropertyOp14
 70
     1
102
RTVSPropertyOp15
 70
     1
102
RTVSPropertyOp16
 70
     1
102
RTVSPropertyOp17
 70
     1
102
RTVSPropertyOp18
 70
     1
102
RTVSPropertyOp19
 70
     1
102
RTVSPropertyOp20
 70
     1
102
RTVSPropertyOp21
 70
     1
102
RTVSPropertyOp22
 70
     1
102
RTVSPropertyOp23
 70
     1
102
RTVSPropertyOp24
 70
     1
102
RTVSPropertyOp25
 70
     1
102
RTVSPropertyOp26
 70
     1
102
RTVSPropertyOp27
 70
     1
102
RTVSPropertyOp28
 70
     1
102
RTVSPropertyOp29
 70
     1
102
RTVSPropertyOp30
 70
     1
102
RTVSPropertyOp31
 70
     1
102
RTVSPropertyOp32
 70
     1
  0
XRECORD
  5
4FF
102
{ACAD_REACTORS
330
4FE
102
}
330
4FE
100
AcDbXrecord
280
     1
102
RTVSPropertyOp0
 70
     1
102
RTVSPropertyOp1
 70
     1
102
RTVSPropertyOp2
 70
     1
102
RTVSPropertyOp3
 70
     1
102
RTVSPropertyOp4
 70
     1
102
RTVSPropertyOp5
 70
     1
102
RTVSPropertyOp6
 70
     1
102
RTVSPropertyOp7
 70
     1
102
RTVSPropertyOp8
 70
     1
102
RTVSPropertyOp9
 70
     1
102
RTVSPropertyOp10
 70
     1
102
RTVSPropertyOp11
 70
     1
102
RTVSPropertyOp12
 70
     1
102
RTVSPropertyOp13
 70
     1
102
RTVSPropertyOp14
 70
     1
102
RTVSPropertyOp15
 70
     1
102
RTVSPropertyOp16
 70
     1
102
RTVSPropertyOp17
 70
     1
102
RTVSPropertyOp18
 70
     1
102
RTVSPropertyOp19
 70
     1
102
RTVSPropertyOp20
 70
     1
102
RTVSPropertyOp21
 70
     1
102
RTVSPropertyOp22
 70
     1
102
RTVSPropertyOp23
 70
     1
102
RTVSPropertyOp24
 70
     1
102
RTVSPropertyOp25
 70
     1
102
RTVSPropertyOp26
 70
     1
102
RTVSPropertyOp27
 70
     1
102
RTVSPropertyOp28
 70
     1
102
RTVSPropertyOp29
 70
     1
102
RTVSPropertyOp30
 70
     1
102
RTVSPropertyOp31
 70
     1
102
RTVSPropertyOp32
 70
     1
  0
XRECORD
  5
4E3
102
{ACAD_REACTORS
330
4E2
102
}
330
4E2
100
AcDbXrecord
280
     1
102
RTVSPropertyOp0
 70
     1
102
RTVSPropertyOp1
 70
     1
102
RTVSPropertyOp2
 70
     1
102
RTVSPropertyOp3
 70
     1
102
RTVSPropertyOp4
 70
     1
102
RTVSPropertyOp5
 70
     1
102
RTVSPropertyOp6
 70
     1
102
RTVSPropertyOp7
 70
     1
102
RTVSPropertyOp8
 70
     1
102
RTVSPropertyOp9
 70
     1
102
RTVSPropertyOp10
 70
     1
102
RTVSPropertyOp11
 70
     1
102
RTVSPropertyOp12
 70
     1
102
RTVSPropertyOp13
 70
     1
102
RTVSPropertyOp14
 70
     1
102
RTVSPropertyOp15
 70
     1
102
RTVSPropertyOp16
 70
     1
102
RTVSPropertyOp17
 70
     1
102
RTVSPropertyOp18
 70
     1
102
RTVSPropertyOp19
 70
     1
102
RTVSPropertyOp20
 70
     1
102
RTVSPropertyOp21
 70
     1
102
RTVSPropertyOp22
 70
     1
102
RTVSPropertyOp23
 70
     1
102
RTVSPropertyOp24
 70
     1
102
RTVSPropertyOp25
 70
     1
102
RTVSPropertyOp26
 70
     1
102
RTVSPropertyOp27
 70
     1
102
RTVSPropertyOp28
 70
     1
102
RTVSPropertyOp29
 70
     1
102
RTVSPropertyOp30
 70
     1
102
RTVSPropertyOp31
 70
     1
102
RTVSPropertyOp32
 70
     1
  0
XRECORD
  5
4E5
102
{ACAD_REACTORS
330
4E4
102
}
330
4E4
100
AcDbXrecord
280
     1
102
RTVSPropertyOp0
 70
     1
102
RTVSPropertyOp1
 70
     1
102
RTVSPropertyOp2
 70
     1
102
RTVSPropertyOp3
 70
     1
102
RTVSPropertyOp4
 70
     1
102
RTVSPropertyOp5
 70
     1
102
RTVSPropertyOp6
 70
     1
102
RTVSPropertyOp7
 70
     1
102
RTVSPropertyOp8
 70
     1
102
RTVSPropertyOp9
 70
     1
102
RTVSPropertyOp10
 70
     1
102
RTVSPropertyOp11
 70
     1
102
RTVSPropertyOp12
 70
     1
102
RTVSPropertyOp13
 70
     1
102
RTVSPropertyOp14
 70
     1
102
RTVSPropertyOp15
 70
     1
102
RTVSPropertyOp16
 70
     1
102
RTVSPropertyOp17
 70
     1
102
RTVSPropertyOp18
 70
     1
102
RTVSPropertyOp19
 70
     1
102
RTVSPropertyOp20
 70
     1
102
RTVSPropertyOp21
 70
     1
102
RTVSPropertyOp22
 70
     1
102
RTVSPropertyOp23
 70
     1
102
RTVSPropertyOp24
 70
     1
102
RTVSPropertyOp25
 70
     1
102
RTVSPropertyOp26
 70
     1
102
RTVSPropertyOp27
 70
     1
102
RTVSPropertyOp28
 70
     1
102
RTVSPropertyOp29
 70
     1
102
RTVSPropertyOp30
 70
     1
102
RTVSPropertyOp31
 70
     1
102
RTVSPropertyOp32
 70
     1
  0
XRECORD
  5
4E7
102
{ACAD_REACTORS
330
4E6
102
}
330
4E6
100
AcDbXrecord
280
     1
102
RTVSPropertyOp0
 70
     1
102
RTVSPropertyOp1
 70
     1
102
RTVSPropertyOp2
 70
     1
102
RTVSPropertyOp3
 70
     1
102
RTVSPropertyOp4
 70
     1
102
RTVSPropertyOp5
 70
     1
102
RTVSPropertyOp6
 70
     1
102
RTVSPropertyOp7
 70
     1
102
RTVSPropertyOp8
 70
     1
102
RTVSPropertyOp9
 70
     1
102
RTVSPropertyOp10
 70
     1
102
RTVSPropertyOp11
 70
     1
102
RTVSPropertyOp12
 70
     1
102
RTVSPropertyOp13
 70
     1
102
RTVSPropertyOp14
 70
     1
102
RTVSPropertyOp15
 70
     1
102
RTVSPropertyOp16
 70
     1
102
RTVSPropertyOp17
 70
     1
102
RTVSPropertyOp18
 70
     1
102
RTVSPropertyOp19
 70
     1
102
RTVSPropertyOp20
 70
     1
102
RTVSPropertyOp21
 70
     1
102
RTVSPropertyOp22
 70
     1
102
RTVSPropertyOp23
 70
     1
102
RTVSPropertyOp24
 70
     1
102
RTVSPropertyOp25
 70
     1
102
RTVSPropertyOp26
 70
     1
102
RTVSPropertyOp27
 70
     1
102
RTVSPropertyOp28
 70
     1
102
RTVSPropertyOp29
 70
     1
102
RTVSPropertyOp30
 70
     1
102
RTVSPropertyOp31
 70
     1
102
RTVSPropertyOp32
 70
     1
  0
XRECORD
  5
4E9
102
{ACAD_REACTORS
330
4E8
102
}
330
4E8
100
AcDbXrecord
280
     1
102
RTVSPropertyOp0
 70
     1
102
RTVSPropertyOp1
 70
     1
102
RTVSPropertyOp2
 70
     1
102
RTVSPropertyOp3
 70
     1
102
RTVSPropertyOp4
 70
     1
102
RTVSPropertyOp5
 70
     1
102
RTVSPropertyOp6
 70
     1
102
RTVSPropertyOp7
 70
     1
102
RTVSPropertyOp8
 70
     1
102
RTVSPropertyOp9
 70
     1
102
RTVSPropertyOp10
 70
     1
102
RTVSPropertyOp11
 70
     1
102
RTVSPropertyOp12
 70
     1
102
RTVSPropertyOp13
 70
     1
102
RTVSPropertyOp14
 70
     1
102
RTVSPropertyOp15
 70
     1
102
RTVSPropertyOp16
 70
     1
102
RTVSPropertyOp17
 70
     1
102
RTVSPropertyOp18
 70
     1
102
RTVSPropertyOp19
 70
     1
102
RTVSPropertyOp20
 70
     1
102
RTVSPropertyOp21
 70
     1
102
RTVSPropertyOp22
 70
     1
102
RTVSPropertyOp23
 70
     1
102
RTVSPropertyOp24
 70
     1
102
RTVSPropertyOp25
 70
     1
102
RTVSPropertyOp26
 70
     1
102
RTVSPropertyOp27
 70
     1
102
RTVSPropertyOp28
 70
     1
102
RTVSPropertyOp29
 70
     1
102
RTVSPropertyOp30
 70
     1
102
RTVSPropertyOp31
 70
     1
102
RTVSPropertyOp32
 70
     1
  0
XRECORD
  5
4FD
102
{ACAD_REACTORS
330
4FC
102
}
330
4FC
100
AcDbXrecord
280
     1
102
RTVSPropertyOp0
 70
     1
102
RTVSPropertyOp1
 70
     1
102
RTVSPropertyOp2
 70
     1
102
RTVSPropertyOp3
 70
     1
102
RTVSPropertyOp4
 70
     1
102
RTVSPropertyOp5
 70
     1
102
RTVSPropertyOp6
 70
     1
102
RTVSPropertyOp7
 70
     1
102
RTVSPropertyOp8
 70
     1
102
RTVSPropertyOp9
 70
     1
102
RTVSPropertyOp10
 70
     1
102
RTVSPropertyOp11
 70
     1
102
RTVSPropertyOp12
 70
     1
102
RTVSPropertyOp13
 70
     1
102
RTVSPropertyOp14
 70
     1
102
RTVSPropertyOp15
 70
     1
102
RTVSPropertyOp16
 70
     1
102
RTVSPropertyOp17
 70
     1
102
RTVSPropertyOp18
 70
     1
102
RTVSPropertyOp19
 70
     1
102
RTVSPropertyOp20
 70
     1
102
RTVSPropertyOp21
 70
     1
102
RTVSPropertyOp22
 70
     1
102
RTVSPropertyOp23
 70
     1
102
RTVSPropertyOp24
 70
     1
102
RTVSPropertyOp25
 70
     1
102
RTVSPropertyOp26
 70
     1
102
RTVSPropertyOp27
 70
     1
102
RTVSPropertyOp28
 70
     1
102
RTVSPropertyOp29
 70
     1
102
RTVSPropertyOp30
 70
     1
102
RTVSPropertyOp31
 70
     1
102
RTVSPropertyOp32
 70
     1
  0
XRECORD
  5
4F3
102
{ACAD_REACTORS
330
4F2
102
}
330
4F2
100
AcDbXrecord
280
     1
102
RTVSPropertyOp0
 70
     1
102
RTVSPropertyOp1
 70
     1
102
RTVSPropertyOp2
 70
     1
102
RTVSPropertyOp3
 70
     1
102
RTVSPropertyOp4
 70
     1
102
RTVSPropertyOp5
 70
     1
102
RTVSPropertyOp6
 70
     1
102
RTVSPropertyOp7
 70
     1
102
RTVSPropertyOp8
 70
     1
102
RTVSPropertyOp9
 70
     1
102
RTVSPropertyOp10
 70
     1
102
RTVSPropertyOp11
 70
     1
102
RTVSPropertyOp12
 70
     1
102
RTVSPropertyOp13
 70
     1
102
RTVSPropertyOp14
 70
     1
102
RTVSPropertyOp15
 70
     1
102
RTVSPropertyOp16
 70
     1
102
RTVSPropertyOp17
 70
     1
102
RTVSPropertyOp18
 70
     1
102
RTVSPropertyOp19
 70
     1
102
RTVSPropertyOp20
 70
     1
102
RTVSPropertyOp21
 70
     1
102
RTVSPropertyOp22
 70
     1
102
RTVSPropertyOp23
 70
     1
102
RTVSPropertyOp24
 70
     1
102
RTVSPropertyOp25
 70
     1
102
RTVSPropertyOp26
 70
     1
102
RTVSPropertyOp27
 70
     1
102
RTVSPropertyOp28
 70
     1
102
RTVSPropertyOp29
 70
     1
102
RTVSPropertyOp30
 70
     1
102
RTVSPropertyOp31
 70
     1
102
RTVSPropertyOp32
 70
     1
  0
XRECORD
  5
4FB
102
{ACAD_REACTORS
330
4FA
102
}
330
4FA
100
AcDbXrecord
280
     1
102
RTVSPropertyOp0
 70
     1
102
RTVSPropertyOp1
 70
     1
102
RTVSPropertyOp2
 70
     1
102
RTVSPropertyOp3
 70
     1
102
RTVSPropertyOp4
 70
     1
102
RTVSPropertyOp5
 70
     1
102
RTVSPropertyOp6
 70
     1
102
RTVSPropertyOp7
 70
     1
102
RTVSPropertyOp8
 70
     1
102
RTVSPropertyOp9
 70
     1
102
RTVSPropertyOp10
 70
     1
102
RTVSPropertyOp11
 70
     1
102
RTVSPropertyOp12
 70
     1
102
RTVSPropertyOp13
 70
     1
102
RTVSPropertyOp14
 70
     1
102
RTVSPropertyOp15
 70
     1
102
RTVSPropertyOp16
 70
     1
102
RTVSPropertyOp17
 70
     1
102
RTVSPropertyOp18
 70
     1
102
RTVSPropertyOp19
 70
     1
102
RTVSPropertyOp20
 70
     1
102
RTVSPropertyOp21
 70
     1
102
RTVSPropertyOp22
 70
     1
102
RTVSPropertyOp23
 70
     1
102
RTVSPropertyOp24
 70
     1
102
RTVSPropertyOp25
 70
     1
102
RTVSPropertyOp26
 70
     1
102
RTVSPropertyOp27
 70
     1
102
RTVSPropertyOp28
 70
     1
102
RTVSPropertyOp29
 70
     1
102
RTVSPropertyOp30
 70
     1
102
RTVSPropertyOp31
 70
     1
102
RTVSPropertyOp32
 70
     1
  0
ENDSEC
  0
SECTION
  2
THUMBNAILIMAGE
 90
    16364
310
28000000B40000005500000001000800000000000000000000000000000000000000000000000000FFFFFF00FF000000FFFF000000FF000000FFFF000000FF00FF00FF000000000080808000C0C0C000FF000000FF7F7F00A5000000A55252007F0000007F3F3F004C0000004C2626002600000026131300FF3F0000FF9F7F
310
00A5290000A56752007F1F00007F4F3F004C1300004C2F26002609000026171300FF7F0000FFBF7F00A5520000A57C52007F3F00007F5F3F004C2600004C39260026130000261C1300FFBF0000FFDF7F00A57C0000A59152007F5F00007F6F3F004C3900004C422600261C000026211300FFFF0000FFFF7F00A5A50000A5A5
310
52007F7F00007F7F3F004C4C00004C4C26002626000026261300BFFF0000DFFF7F007CA5000091A552005F7F00006F7F3F00394C0000424C26001C260000212613007FFF0000BFFF7F0052A500007CA552003F7F00005F7F3F00264C0000394C2600132600001C2613003FFF00009FFF7F0029A5000067A552001F7F00004F
310
7F3F00134C00002F4C2600092600001726130000FF00007FFF7F0000A5000052A55200007F00003F7F3F00004C0000264C2600002600001326130000FF3F007FFF9F0000A5290052A56700007F1F003F7F4F00004C1300264C2F00002609001326170000FF7F007FFFBF0000A5520052A57C00007F3F003F7F5F00004C2600
310
264C39000026130013261C0000FFBF007FFFDF0000A57C0052A59100007F5F003F7F6F00004C3900264C420000261C001326210000FFFF007FFFFF0000A5A50052A5A500007F7F003F7F7F00004C4C00264C4C00002626001326260000BFFF007FDFFF00007CA5005291A500005F7F003F6F7F0000394C0026424C00001C26
310
0013212600007FFF007FBFFF000052A500527CA500003F7F003F5F7F0000264C0026394C0000132600131C2600003FFF007F9FFF000029A5005267A500001F7F003F4F7F0000134C00262F4C0000092600131726000000FF007F7FFF000000A5005252A50000007F003F3F7F0000004C0026264C0000002600131326003F00
310
FF009F7FFF002900A5006752A5001F007F004F3F7F0013004C002F264C0009002600171326007F00FF00BF7FFF005200A5007C52A5003F007F005F3F7F0026004C0039264C00130026001C132600BF00FF00DF7FFF007C00A5009152A5005F007F006F3F7F0039004C0042264C001C00260021132600FF00FF00FF7FFF00A5
310
00A500A552A5007F007F007F3F7F004C004C004C264C002600260026132600FF00BF00FF7FDF00A5007C00A55291007F005F007F3F6F004C0039004C26420026001C0026132100FF007F00FF7FBF00A5005200A5527C007F003F007F3F5F004C0026004C2639002600130026131C00FF003F00FF7F9F00A5002900A5526700
310
7F001F007F3F4F004C0013004C262F002600090026131700000000002D2D2D005B5B5B0089898900B7B7B700B3B3B30000000000000000000000000000000000000000000000000000000000000000000000000000000000000000000000000000000000000000000000000000000000000000000000000000000000000000
310
00000000000000000000000000000000000000000000000000000000000000000000000000000000000000000000000000000000000000000000000000000000000000000000000000000000000000000000000000000000000000000000000000000000000000000000000000000000000000000000000000000000000000
310
00000000000000000000000000000000000000000000000000000000000000000000000000000000000000000000000000000000000700070000000007000000000000000000000000000000000000000000000007000007000000000000000000000700000007000707000000000000000000000000000000000000000000
310
00000000000000000000000000000000000000000000000000000000000000000000000000000000000000000000000000000000000000000000000000000000000000000000000000000000000000000000000000070000000000000000070000000000070000000000000000000000000000000007000000000007000000
310
07000000070000000000070700000000000700000000000007000000070007000000000000000000000000000000000000000000000000000000000000000000000000000000000000000000000000000000000000000000000000000000000000000000000000000000000000000000000000000000000000000000000000
310
00000000000000070000070000000000000000070007070000000707000000000000000000000007000000070007070000000700000000000007000700000000000000000007070700000000000000000700000000000000000000000000000000000000000000000000000000000000000000000000000000000000000000
310
00000000000000000000000000000000000000000000000000000000000000000000000000000000000000000000000000000000000000000000000000000000000700000000000007000000000000070707000007070000000000000000000000000707070000070007000000000007000000000000000000000707000700
310
00000000070000070000000000000000000000000000000000000000000000000000000000000000000000000000000000000000000000000000000000000000000000000000000000000000000000000000000000000000000000000000000000000000000000000000000000000700000000000700070707000000070000
310
00000000000007000000000000000000000000000007070007000000000000070000000000070700000000000000000007000000000700000700070700000000000000000000000000000000000000000000000000000000000000000000000000000000000000000000000000000000000000000000000000000000000000
310
00000000000000000000000000000000000000000000000000000000000000000000000000000700070700000007070000000000000000000700000000000000000000000007000000000000000700000000000007000000000007070700000000000000070000000000000000070000000000000000000000000000000000
310
00000000000000000000000000000000000000000000000000000000000000000000000000000000000000000000000000000000000000000000000000000000000000000000000000000000000000000000000000000000000000000007070000000000000000000000000000070000070000070007000700000000000000
310
00000000000000000000000000000007000007070700070000000000000000000000000000000000000000000000000000000000000000000000000000000000000000000000000000000000000000000000000000000000000000000000000000000000000000000000000000000000000000000000000000000000000000
310
00000000000000000000000000000000070700070700000000000700000700000007070700000000000000000007000000000000000000070000000000000700000007000700000000000000000000000700000700000000000000000000070000000000000000000000000000000000000000000000000000000000000000
310
00000000000000000000000000000000000000000000000000000000000000000000000000000000000000000000000000000000000000000000000000000000000007000007070007070700000007070707000000000007000000000000000000000007070700000000000007000000070000000000070000000000000000
310
00000000000007070000000000000000000000070000000000000000000000000000000000000000000000000000000000000000000000000000000000000000000000000000000000000000000000000000000000000000000000000000000000000000000000000000000000000000000000000000000000000000000700
310
07000000000007070000000000000700070000000000000000000707000000070000000000000700000000000700070000000000000007000000000000000000000000070007000000000000000000000000000000000000000000000000000000000000000000000000000000000000000000000000000000000000000000
310
00000000000000000000000000000000000000000000000000000000000000000000000000000000000000000000000700000000000707000000000000000000000000000007000000000000000007070700000007000707070000000000000000000000000000000000000700000000000000070007070007000000000000
310
00000000000000000000000000000000000000000000000000000000000000000000000000000000000000000000000000000000000000000000000000000000000000000000000000000000000000000000000000000000000000000000000000000000070000000007000700000000000000000000000000000000000007
310
00000000070700000000000000070700070007000000000000000000000000070000070700000000000000070000000000000000000007000000000000000000000000000000000000000000000000000000000000000000000000000000000000000000000000000000000000000000000000000000000000000000000000
310
00000000000000000000000000000000000000000000000007070000000000000000000000070700000700000000000000000700000000000000000000000000000000000007070700000007000000070007000000000000000000000000000000000000000000070000070000000000000000000000000000000000000000
310
00000000000000000000000000000000000000000000000000000000000000000000000000000000000000000000000000000000000000000000000000000000000000000000000000000000000707000000000000000000000707070000070007000000000000000700000000000700000000000000000000000000000000
310
07000000000000000000000000000007000000000000000000000000000700070000000000000000000000000000000000000000000000000000000000000000000000000000000000000000000000000000000000000000000000000000000000000000000000000000000000000000000000000000000000000000000000
310
00000000000000000000000000000000070000000000000700000000000700000000000007000000070000000000000700000000000000070000000000000707000000000007000000000007000007000000000007000000000000000000000000000000000000000000000000000000000000000000000000000000000000
310
00000000000000000000000000000000000000000000000000000000000000000000000000000000000000000000000000000000000000000000000000000707000700000000000000000000070000000000070000000700000000000007000000000000070000070000000007000000000000000700000000000000000000
310
00070000070000000000000000000000000000000000000000000000000000000000000000000000000000000000000000000000000000000000000000000000000000000000000000000000000000000000000000000000000000000000000000000000000000000000000000070000000000070000000000000000000000
310
00070000000000000000000707000000070000070007000000070000000000000000000000000007000000000000000000000700000700070000000000000000000000000000000000000000000000000000000000000000000000000000000000000000000000000000000000000000000000000000000000000000000000
310
00000000000000000000000000000000000000000000000000000000000000000000070007070000000000000000000000000000000000000000000000070000070707000007000000000700000007070000000000000000000000000007000007000000000007000000000707000000000000000000000000000000000000
310
00000000000000000000000000000000000000000000000000000000000000000000000000000000000000000000000000000000000000000000000000000000000000000000000000000000000000000000000000000000000700000707000000000000070000000000000000000000070000000000000000000000000000
310
07000000070707000000000700000000070000000007000000000000000000000000000000070700000000000000000000000000000000000000000000000000000000000000000000000000000000000000000000000000000000000000000000000000000000000000000000000000000000000000000000000000000000
310
00000000000000000000000000000000000000000000000700000700000000070000000007000000000000000007000000000000000000000007000000000707000000000000000000070700000707000000000000000000000000000007000000000000000000000000000000000000000000000000000000000000000000
310
00000000000000000000000000000000000000000000000000000000000000000000000000000000000000000000000000000000000000000000000000000000000000000000000000000000000007000000000007070000000700000000000000000007000000000000000007070000000000000007070000000000000000
310
07000000070700000000070000070000000000070000070000000000000000000000000000000000000000000000000000000000000000000000000000000000000000000000000000000000000000000000000000000000000000000000000000000000000000000000000000000000000000000000000000000000070700
310
00000000000000000000070700000000000000000000000000070000070007000000000700000000000000000700000000000000000000000007000700000707000700000000000000070000000000000000000000000000000000000000000000000000000000000000000000000000000000000000000000000000000000
310
00000000000000000000000000000000000000000000000000000000000000000000000000000000000000000000000000000000000000000000000007000000000000000000070007000700000007000007000000000000070000000000000000000700000007000000070000000000070000000000000000000000000007
310
00070000000000000000000000000000000000000000000000000000000000000000000000000000000000000000000000000000000000000000000000000000000000000000000000000000000000000000000000000000000000000000000000000000000000000000000000070000000000000000000000000007000707
310
07000007000000000000000000000700000000070000000007000000000000070700070000000000000000000000000700000000000707070000000000000000000000000000000000000000000000000000000000000000000000000000000000000000000000000000000000000000000000000000000000000000000000
310
00000000000000000000000000000000000000000000000000000000000007000000000000000000000000000000000700000007070007000000000700000000000000000700000007000000000007000000000000000707000000000007000000070000070000000000000000000000000000000000000000000000000000
310
00000000000000000000000000000000000000000000000000000000000000000000000000000000000000000000000000000000000000000000000000000000000000000000000000000000000000000700070707000000000000000007070000000000000000000700000700000000000700000000000000000707070000
310
00000000000000000000000000070000000000070000000700000000070000000007000000000000000000000000000000000000000000000000000000000000000000000000000000000000000000000000000000000000000000000000000000000000000000000000000000000000000000000000000000000000000000
310
00000000000000070000000007070000000000000707000000000000000000000000000000000000000000070000000000000000070000000000070000000000000700000000000000000700000000000007000007000000000000000000000000000000000000000000000000000000000000000000000000000000000000
310
00000000000000000000000000000000000000000000000000000000000000000000000000000000000000000000000000000000000000000000000707000000000000070000000000000000000000000000000007000000000007000700000000000000000700000000000000000000000000070007070000070700070000
310
07000000000007070000070700000000000000000000000000000000000000000000000000000000000000000000000000000000000000000000000000000000000000000000000000000000000000000000000000000000000000000000000000000000000000000000000000000000000000000000000707000000000000
310
00000000000700000007000000000000070007000700000000000000000000000000000000070000070700000000000700000000000000000000070000000700000000000000000000000000000000000000000000000000000000000000000000000000000000000000000000000000000000000000000000000000000000
310
00000000000000000000000000000000000000000000000000000000000000000000000000000000000000000707000000000000000000070700000000000700000000000000070000000000070700000000000700000000070000000007000000000000000000000000000700070000000000000000000000000000000000
310
00000000000000000000000000000000000000000000000000000000000000000000000000000000000000000000000000000000000000000000000000000000000000000000000000000000000000000000000000000000000000000000000000000000000000000000000007070000000000000700070000000000000000
310
00070000000000000000000007070000000000070007000000000000000700000707000000000000000000070700000000000000000000000000000000000000000000000000000000000000000000000000000000000000000000000000000000000000000000000000000000000000000000000000000000000000000000
310
00000000000000000000000000000000070707000000000000000000070700000000000707000000000000000700000000000000000707000000000700070000000000000000000000000000070000070000070000000000000007000707000000000000000000000000000000000000000000000000000000000000000000
310
00000000000000000000000000000000000000000000000000000000000000000000000000000000000000000000000000000000000000000000000000000000000000000007000700000700000000070000000000000000070007000000000700000000000700000007000700000000000000000007000000000000000000
310
00000000000707000007000000000000000007000000000000000000000000000000000000000000000000000000000000000000000000000000000000000000000000000000000000000000000000000000000000000000000000000000000000000000000000000000000000000000000000000000000000070000000000
310
00000000000000000000070700070707070000000000000000070000000000000000000000000000000000070000070000000000000700000700000700000007000000000000000000000000000000000000000000000000000000000000000000000000000000000000000000000000000000000000000000000000000000
310
00000000000000000000000000000000000000000000000000000000000000000000000000000000000000000000000000070000000700000000000000000707070000000000000700000000000007070000000700070000000000000000000000000007000007000000070000070000000000000007000000000000000000
310
00000000000000000000000000000000000000000000000000000000000000000000000000000000000000000000000000000000000000000000000000000000000000000000000000000000000000000000000000000000000000000000000000000000000000000700000000000000000000000707000000000000070700
310
00000700000000000000000007000007000000000007000000070000070000000000000000000000000007000700000000000007000700000000000000000000000000000000000000000000000000000000000000000000000000000000000000000000000000000000000000000000000000000000000000000000000000
310
00000000000000000000000000000000000000000000000000000000000000000000000000070700070000070000000000000007000007070000000000000000000000000000070000000700000007000000000700000000000000000000000000000000000000000007000000000000000000000000000000000000000000
310
00000000000000000000000000000000000000000000000000000000000000000000000000000000000000000000000000000000000000000000000000000000000000000000000000000000000000000000000000000000070707070000000000000000000000070000000000000000000000000000000000070007000000
310
00000007000000000000000000000700000000000000000000070000070000000000000000000000000000000000000000000000000000000000000000000000000000000000000000000000000000000000000000000000000000000000000000000000000000000000000000000000000000000000000000000000000000
310
00000000000000000007000700000700000000000000000007000000000000000000000007000007070000000000070700000000000000000000070000000000000000000700000700000000000700000000000000000000000000000000000000000000000000000000000000000000000000000000000000000000000000
310
00000000000000000000000000000000000000000000000000000000000000000000000000000000000000000000000000000000000000000000000000000000070000000000000000000707000000000000000000000707000000000000000000000000000007000007000007000000000000070007070000000000000000
310
00000000000000000000000007070000000000000000000000000000000000000000000000000000000000000000000000000000000000000000000000000000000000000000000000000000000000000000000000000000000000000000000000000000000000000000000000000000000000070000000000000000000000
310
07000000000007000000070007000000000000000707000700000000000000070000000000070700070700000007000000000000000700000000000000000000000707000000000000000000000000000000000000000000000000000000000000000000000000000000000000000000000000000000000000000000000000
310
00000000000000000000000000000000000000000000000000000000000000000000000000000000000000000000000000000000070000000000000007000007000000000000000000000700070000000000000707070000000007000707070700000000000700000000000000000000000000000000000000000000000000
310
00000000000000000000000000000000000000000000000000000000000000000000000000000000000000000000000000000000000000000000000000000000000000000000000000000000000000000000000000000000000000000007000000000007070000000007000000000000000000000000000000000000000007
310
07000007000700000007070000000000000000000000000000000000000000000707000000070000070000000000000000000000000000000000000000000000000000000000000000000000000000000000000000000000000000000000000000000000000000000000000000000000000000000000000000000000000000
310
00000000000000000000000000000000000007070000000000070000000000000000000700000000000000000007000000000000000000000700000000000007000000000000000000070000000700000000000007070007000007000000000000000000000000000000000000000000000000000000000000000000000000
310
00000000000000000000000000000000000000000000000000000000000000000000000000000000000000000000000000000000000000000000000000000000000000000000070700000000000007070000000007070000000000000000000000000700000007000000000000000000000007000007000000000000000007
310
00000007000007000007000700000000000000000700000000000000000000000000000000000000000000000000000000000000000000000000000000000000000000000000000000000000000000000000000000000000000000000000000000000000000000000000000000000000000000000000000000000707070000
310
00000000070000070000000000000000000000000007070000000000000700000000070000000000000000070000000000000000070000000000000000000707000000000000000007000007070700000000000000000000000000000000000000000000000000000000000000000000000000000000000000000000000000
310
00000000000000000000000000000000000000000000000000000000000000000000000000000000000000000000000000000700000000000000000700000700000000000707000000000700000000000000000700000000000000000000000000070007000007000000000000000000000000070000000000000000000700
310
00000007000000000000000000000000000000000000000000000000000000000000000000000000000000000000000000000000000000000000000000000000000000000000000000000000000000000000000000000000000000000000000000000000000000000000000000000000000007070000000000070700000000
310
00000000000000000000000000000000000007000000000000000007000000000007000000000007000000000000000000070000000000000700000000000000000000000000000000000000000000000000000000000000000000000000000000000000000000000000000000000000000000000000000000000000000000
310
00000000000000000000000000000000000000000000000000000000000000070000070700000000000000000000000000000000000007000000070000000000000700070000000700000000000000000000000700000000000700000700000007000007000007000000000000000000000000000000000000000000000000
310
00000000000000000000000000000000000000000000000000000000000000000000000000000000000000000000000000000000000000000000000000000000000000000000000000000000000000000700000700000700000000000000070000000000000000000000070700070007000000000007000000070000000000
310
00000000000000000007000007000000000707000007070000000000000000000700000000000000000000000000000000000000000000000000000000000000000000000000000000000000000000000000000000000000000000000000000000000000000000000000000000000000000000000000000000000000000000
310
00000000000007000000000000000000000000070700000000000000000007000000000000070000000000000000000000000000070000000007070000000000000000000700000000000000000700000000000007000000000000000000000000000000000000000000000000000000000000000000000000000000000000
310
00000000000000000000000000000000000000000000000000000000000000000000000000000000000000000000000000000000000000000000000700000007000000000000000000000000000000000000000700000000000000070007000007000707000007000000000000000000000007000000000000070000070000
310
00000000000000000000000000000000000000000000000000000000000000000000000000000000000000000000000000000000000000000000000000000000000000000000000000000000000000000000000000000000000000000000000000000000000000000000000000000000000000000000070000000000000000
310
00000007070000000000000000000000000000070000000000070000070700000000070007000000000000000000000000000000000000000007000000000000070700000000000000000000000000000000000000000000000000000000000000000000000000000000000000000000000000000000000000000000000000
310
00000000000000000000000000000000000000000000000000000000000000000000000000000000000000000700000000070700000007000000000000000000000000000000000007000000070000000707070007000000000000070700000000000000000000000000000007000007000000000007000007000000000000
310
00000000000000000000000000000000000000000000000000000000000000000000000000000000000000000000000000000000000000000000000000000000000000000000000000000000000000000000000000000000000000000007000700000000000000000000000000000000000000000707000000000000070707
310
00000000000000070000000000000000070707000007000000000000070007000000070000070000000000000000000000000000000000000000000000000000000000000000000000000000000000000000000000000000000000000000000000000000000000000000000000000000000000000000000000000000000000
310
00000000000000000000000000000000000007070000000000000000070000000000000000000700000000000000070000000700070700000000000000070000000000000000000700000700000000000007000700000000000000070000000000000000000000000000000000000000000000000000000000000000000000
310
00000000000000000000000000000000000000000000000000000000000000000000000000000000000000000000000000000000000000000000000000000000000000000000000000000000000007000000070000000000000000070700000000000007000000000000000000000000000007000700000000000000000000
310
00000007000000000707000000000000070700070000000000000000000000000000000000000000000000000000000000000000000000000000000000000000000000000000000000000000000000000000000000000000000000000000000000000000000000000000000000000000000000000000000000000000000000
310
00000000000000000000000000000707070007000000000000070707000000000000000000000000000000000000000000070000070000000000000700000007000000000007070000000000000000000000000000000000000000000000000000000000000000000000000000000000000000000000000000000000000000
310
00000000000000000000000000000000000000000000000000000000000000000000000000000000000000000000000000000700000000000000000000000000070707000000000000000000000007000700000000000000000000000000000707000700000000000000000000000000000000070707000000000000000007
310
07070000070000000000000000000000000000000000000000000000000000000000000000000000000000000000000000000000000000000000000000000000000000000000000000000000000000000000000000000000000000000000000000000000000700070000070700000007000700000000000000000000000000
310
00000000000000000000000700070707000000000000000000000000000000000000000000000000000007070000070000000000070007000000000000000000000000000000000000000000000000000000000000000000000000000000000000000000000000000000000000000000000000000000000000000000000000
310
00000000000000000000000000000000000000000000000000000007070007000007000000000007000000000000000000070007000000000007070000070000000000000000000000000000000700000000000700000000000000000700000000000007000000000000000000000000000000000000000000000000000000
310
00000000000000000000000000000000000000000000000000000000000000000000000000000000000000000000000000000000000000000000000000000000000000000000000000000000000000000000000000000000000007070000000000000000000007000000000007000700070000000000000000000007000000
310
00070000000000000000000007070007000007000000000000000000070000000000070000000000000000000000000000000000000000000000000000000000000000000000000000000000000000000000000000000000000000000000000000000000000000000000000000000000000000000000000000000000000000
310
00000000000000000000070000000000000000000700000000000707000000070700070700070700000000000000000007000000000000000000000000000000070000070700000000000000070700000000000000000000000000000000000000000000000000000000000000000000000000000000000000000000000000
310
00000000000000000000000000000000000000000000000000000000000000000000000000000000000000000000000000000000000000000000000000000007000000000000000000070007000007000700000000000000000000000000000000000000000700000000000700000007000000070000000000000000000000
310
00000007000000000000000007070007000000000000000000000000000000000000000000000000000000000000000000000000000000000000000000000000000000000000000000000000000000000000000000000000000000000000000000000000000000000000000000000000000000070000000000000000000007
310
00000000000000000700070000000000000000000700000007000000000007000000000000070000000000000000000700000000070000070707000000070000000007000000000000000000000000000000000000000000000000000000000000000000000000000000000000000000000000000000000000000000000000
310
00000000000000000000000000000000000000000000000000000000000000000000000000000000000000000000070000000000000000000000000007000700000000000000000000070000070700000000000000000007000000000700000000000000070000070007000007000007000000000000000000000000000000
310
00000000000000000000000000000000000000000000000000000000000000000000000000000000000000000000000000000000000000000000000000000000000000000000000000000000000000000000000000000000000000000700000000000707000000070000000000000000000700000000000000000707000000
310
00000000000000000007000000070700070007000000000000000007000000000000000007000000000000000000000700000000000000000000000000000000000000000000000000000000000000000000000000000000000000000000000000000000000000000000000000000000000000000000000000000000000000
310
00000000000000000000000000000000000000000000000007070000000700000000070000000000000007070000000000000000000000000000070000000000000000000707000007070000000000000700000000000000000007000000000000000007000000000000000000000000000000000000000000000000000000
310
00000000000000000000000000000000000000000000000000000000000000000000000000000000000000000000000000000000000000000000000000000000000000000000000000000000070000000007000000000000000700000000000000070000000000000000000000000700000000000000000007000000000007
310
00000007000000000700000000000000000000000000000000000000000000000000000000000000000000000000000000000000000000000000000000000000000000000000000000000000000000000000000000000000000000000000000000000000000000000000000000000000000000000000000000000000000000
310
00000000000000000700070000000007000000000000000000000000000000000007000000000000000007000000070000000000000000000000000007070000000700000000000700000007000707000000000000000000000000000000000000000000000000000000000000000000000000000000000000000000000000
310
00000000000000000000000000000000000000000000000000000000000000000000000000000000000000000000000000000700000000070000070000070000070000000700000000000000000000000000070000000700000000000700000007070000000000000000000000000000000007000000070700000007000000
310
07000000070000000000000000000000000000000000000000000000000000000000000000000000000000000000000000000000000000000000000000000000000000000000000000000000000000000000000000000000000000000000000000000000000000000000000007000000000000000007000000070700000000
310
00000000070000000000000707000000000000000000000000000007000000000700000000000000000007070000000000000000000700000000000000000000000000000000000000000000000000000000000000000000000000000000000000000000000000000000000000000000000000000000000000000000000000
310
00000000000000000000000000000000000000000000000000000000000007000000070000000700000000000000000000000007000000000007070000000000000000070700000000000000000000000000000000070000000700000000000700000007000000000007070000000000000000000000000000000000000000
310
00000000000000000000000000000000000000000000000000000000000000000000000000000000000000000000000000000000000000000000000000000000000000000000000000000000000000000000000700000000000007070007000000000000000000000700070000000000000000000000000007000000000000
310
00000700070000000700000007000000000000000700000000000000000000070000000000000000000000000000000000000000000000000000000000000000000000000000000000000000000000000000000000000000000000000000000000000000000000000000000000000000000000000000000000000000000000
310
00000000000000000000000000000000000000070000000007000000000700070000000000000007000000000000000000000007000007070007000000070000000700070000000007070700000000000000000007000700000000000000000000000000000000000000000000000000000000000000000000000000000000
310
00000000000000000000000000000000000000000000000000000000000000000000000000000000000000000000000000000000000000000000000000000000000000000000070000000000000000000000070707000000000000070700000000000000000700000700000007000000000000000000000007000000000000
310
00000007000000000000070007000000000000000000000000000000000000000000000000000000000000000000000000000000000000000000000000000000000000000000000000000000000000000000000000000000000000000000000000000000000000000000000000000000000000000007000000000007000000
310
00000000070000000007000000000000000707000000000000000707070000000000070000000000000000000000000000070000000000000700070007000000000007000000000000000000000000000000000000000000000000000000000000000000000000000000000000000000000000000000000000000000000000
310
00000000000000000000000000000000000000000000000000000000000000000000000000000000000007070000070000000000000700000007000000000000000700000000000000070007070000000707000000000007070707070000000000000000000000000700000000000000000000000000000700070000000000
310
00000000000000000000000000000000000000000000000000000000000000000000000000000000000000000000000000000000000000000000000000000000000000000000000000000000000000000000000000000000000000000000000007000000000000000000000000000000000000000707070007000000000000
310
07070700000000000000000007000700070700070000000007000007000000000000070000000000000000000000000700000000000000000000000000000000000000000000000000000000000000000000000000000000000000000000000000000000000000000000000000000000000000000000000000000000000000
310
00000000000000000000000000000000000000000000000000000000000007000000070000000007000700000000000000000000070000000000000000000000000000070707070700000700000000000000000000000000000007000000000000000000000700000000000000000000000000000000000000000000000000
310
00000000000000000000000000000000000000000000000000000000000000000000000000000000000000000000000000000000000000000000000000000000000000000000000000000000000707000007070707070700000000000000000000000000000000000000000000000000000700070007000007000000000000
310
00000700000000000000000000000000000007070007000000000707000000000000000000000000000000000000000000000000000000000000000000000000000000000000000000000000000000000000000000000000000000000000000000000000000000000000000000000000000000000000000000000000000000
310
00070000000700000000070007000700000000000007000000000700000000000000000007000000000007000000000000000007070000070000070000000000000000070000000000070000000000000700000000000000000000000000000000000000000000000000000000000000000000000000000000000000000000
310
00000000000000000000000000000000000000000000000000000000000000000000000000000000000000000000000000000007000707000000000000000007070007000000000000000000000700000000070000000000000700070000000000000700000000000000000000000000070700070700000007000000000000
310
00000007000007070000000000000000000000000000000000000000000000000000000000000000000000000000000000000000000000000000000000000000000000000000000000000000000000000000000000000000000000000000000000000000000000000707000000000000000000000700000000000000000000
310
000000000000000007070007000700000007070000000000000000000000000000000000000000070000070000000000000000070000000000000000000000000000000000000000000000000000000000000000000000000000000000000000000000000000000000000000
  0
ENDSEC
  0
EOF
